  0
SECTION
  2
HEADER
  9
$ACADVER
  1
AC1009
  9
$EXTMIN
 10
0.0
 20
-850.0
 30
0.0
  9
$EXTMAX
 10
1190.0
 20
415.0
 30
0.0
  9
$LTSCALE
 40
2.0
  9
$AUNITS
 70
     0
  9
$ANGBASE
 50
0.0
  9
$ANGDIR
 70
     0
  9
$PDMODE
 70
     2
  9
$PDSIZE
 40
0.0
  0
ENDSEC
  0
SECTION
  2
TABLES
  0
TABLE
  2
LTYPE
 70
     5
  0
LTYPE
  2
CONTINUOUS
 70
    64
  3
実線
 72
    65
 73
     0
 40
0.0
  0
LTYPE
  2
HIDDEN
 70
    64
  3
- - - - - - - -  - - 
 72
    65
 73
     2
 40
1.875
 49
1.25
 49
-0.625
  0
LTYPE
  2
CENTER
 70
    64
  3
------ - ------ - ----
 72
    65
 73
     4
 40
10.0
 49
6.25
 49
-1.25
 49
1.25
 49
-1.25
  0
LTYPE
  2
DASHED
 70
    64
  3
-- -- -- -- -- -- 
 72
    65
 73
     2
 40
3.75
 49
2.5
 49
-1.25
  0
LTYPE
  2
PHANTOM
 70
    64
  3
----- - - ----- - - ---
 72
    65
 73
     6
 40
12.5
 49
6.25
 49
-1.25
 49
1.25
 49
-1.25
 49
1.25
 49
-1.25
  0
ENDTAB
  0
TABLE
  2
LAYER
 70
     5
  0
LAYER
  2
0
 70
     0
 62
     4
  6
CONTINUOUS
  0
LAYER
  2
3
 70
     0
 62
     4
  6
CONTINUOUS
  0
LAYER
  2
4
 70
     0
 62
     7
  6
CONTINUOUS
  0
LAYER
  2
6
 70
     0
 62
     4
  6
CENTER
  0
LAYER
  2
7
 70
     0
 62
     7
  6
CONTINUOUS
  0
ENDTAB
  0
TABLE
  2
STYLE
 70
     3
  0
STYLE
  2
STANDARD
 70
     0
 40
0.0
 41
1.0
 50
0.0
 71
     0
 42
0.200000
  3
txt
  4
bigfont
  0
STYLE
  2
CSTEXT
 70
    64
 40
0.0
 41
1.0
 50
0.0
 71
     0
 42
1.0
  3
TXT
  4
BIGFONT
  0
STYLE
  2
CSTEXT_T
 70
    68
 40
0.0
 41
1.0
 50
0.0
 71
     0
 42
1.0
  3
TXT
  4
BIGFONT
  0
ENDTAB
  0
TABLE
  2
DIMSTYLE
 70
     1
  0
DIMSTYLE
  2
ISO-25
 70
     0
  3

  4

  5

  6

  7

 40
1.0
 41
2.5
 42
0.625
 43
3.75
 44
1.25
 45
0.0
 46
0.0
 47
0.0
 48
0.0
140
2.5
141
2.5
142
0.0
143
0.04
144
1.0
145
0.0
146
1.0
147
0.625
 71
     0
 72
     0
 73
     0
 74
     0
 75
     0
 76
     0
 77
     1
 78
     8
170
     0
171
     3
172
     1
173
     0
174
     0
175
     0
176
     0
177
     0
178
     0
  0
ENDTAB
  0
ENDSEC
  0
SECTION
  2
ENTITIES
  0
TEXT
  8
0
 10
255.618524
 20
392.536595
 30
0.0
 40
10.0
  7
CSTEXT
  1
外形寸法図
 41
0.800000
 72
     5
 11
327.618524
 21
392.536595
 31
0.0
  0
LINE
  8
0
 10
255.618524
 20
391.536595
 30
0.0
 11
327.618524
 21
391.536595
 31
0.0
  0
TEXT
  8
0
 10
177.118524
 20
377.536595
 30
0.0
 40
10.0
  7
CSTEXT
  1
１１００Ｖ以下低圧変成器ＣＴシリーズ　ＣＴ－１５ＬＭＳ
 41
0.800000
 72
     5
 11
406.118524
 21
377.536595
 31
0.0
  0
LINE
  8
0
 10
177.118524
 20
376.536595
 30
0.0
 11
406.118524
 21
376.536595
 31
0.0
  0
LINE
  8
0
 62
     7
 10
5.0
 20
5.0
 30
0.0
 11
5.0
 21
410.0
 31
0.0
  0
LINE
  8
0
 62
     7
 10
5.0
 20
5.0
 30
0.0
 11
585.0
 21
5.0
 31
0.0
  0
LINE
  8
0
 62
     7
 10
585.0
 20
410.0
 30
0.0
 11
585.0
 21
5.0
 31
0.0
  0
LINE
  8
0
 62
     7
 10
585.0
 20
410.0
 30
0.0
 11
5.0
 21
410.0
 31
0.0
  0
LINE
  8
0
 62
     7
 10
0.0
 20
415.0
 30
0.0
 11
0.0
 21
0.000000
 31
0.0
  0
LINE
  8
0
 62
     7
 10
590.0
 20
0.0
 30
0.0
 11
590.0
 21
415.0
 31
0.0
  0
LINE
  8
0
 62
     7
 10
590.0
 20
415.0
 30
0.0
 11
0.0
 21
415.0
 31
0.0
  0
LINE
  8
0
 62
     7
 10
590.0
 20
0.0
 30
0.0
 11
0.0
 21
0.0
 31
0.0
  0
TEXT
  8
0
 10
236.618524
 20
362.536595
 30
0.0
 40
10.0
  7
CSTEXT
  1
検定専用品　ブスバー配線用
 41
0.800000
 72
     5
 11
346.618524
 21
362.536595
 31
0.0
  0
LINE
  8
0
 10
236.618524
 20
361.536595
 30
0.0
 11
346.618524
 21
361.536595
 31
0.0
  0
TEXT
  8
3
 10
1.000000
 20
0.500000
 30
0.0
 40
3.500000
  7
CSTEXT
  1
BK-15LMS-2
 41
0.800000
 72
     5
 11
24.240000
 21
0.500000
 31
0.0
  0
TEXT
  8
0
 10
232.368524
 20
347.536595
 30
0.0
 40
10.0
  7
CSTEXT
  1
２００Ａ、２５０Ａ、３００Ａ
 41
0.800000
 72
     5
 11
350.868524
 21
347.536595
 31
0.0
  0
LINE
  8
0
 10
350.868524
 20
346.536595
 30
0.0
 11
232.368524
 21
346.536595
 31
0.0
  0
LINE
  8
6
 10
180.515308
 20
226.554270
 30
0.0
 11
216.310715
 21
226.554270
 31
0.0
  0
LINE
  8
7
 62
     4
  6
PHANTOM
 10
205.817293
 20
143.091060
 30
0.0
 11
205.817293
 21
254.406590
 31
0.0
  0
LINE
  8
7
 62
     4
  6
PHANTOM
 10
195.817293
 20
143.091060
 30
0.0
 11
195.817293
 21
254.406590
 31
0.0
  0
LINE
  8
7
 10
183.217296
 20
223.554270
 30
0.0
 11
183.217296
 21
229.554270
 31
0.0
  0
LINE
  8
6
 10
200.817293
 20
259.871250
 30
0.0
 11
200.817293
 21
137.659110
 31
0.0
  0
LINE
  8
7
 10
172.317293
 20
159.054270
 30
0.0
 11
167.317293
 21
159.054270
 31
0.0
  0
LINE
  8
7
 10
167.717293
 20
160.554270
 30
0.0
 11
167.717293
 21
159.054270
 31
0.0
  0
LINE
  8
7
 10
167.317293
 20
160.554270
 30
0.0
 11
167.317293
 21
159.054270
 31
0.0
  0
LINE
  8
7
 10
171.917293
 20
160.554270
 30
0.0
 11
171.917293
 21
159.054270
 31
0.0
  0
LINE
  8
7
 10
172.317293
 20
160.554270
 30
0.0
 11
172.317293
 21
159.054270
 31
0.0
  0
LINE
  8
7
 10
183.217296
 20
223.554270
 30
0.0
 11
184.717296
 21
223.554270
 31
0.0
  0
LINE
  8
7
 10
183.217296
 20
224.054270
 30
0.0
 11
184.717296
 21
224.054270
 31
0.0
  0
LINE
  8
7
 10
183.217296
 20
229.554270
 30
0.0
 11
184.717296
 21
229.554270
 31
0.0
  0
LINE
  8
7
 10
183.217296
 20
229.054270
 30
0.0
 11
184.717296
 21
229.054270
 31
0.0
  0
LINE
  8
7
 10
229.317293
 20
159.054270
 30
0.0
 11
234.317293
 21
159.054270
 31
0.0
  0
LINE
  8
7
 10
229.317293
 20
160.554270
 30
0.0
 11
229.317293
 21
159.054270
 31
0.0
  0
LINE
  8
7
 10
229.717293
 20
160.554270
 30
0.0
 11
229.717293
 21
159.054270
 31
0.0
  0
LINE
  8
7
 10
234.317293
 20
160.554270
 30
0.0
 11
234.317293
 21
159.054270
 31
0.0
  0
LINE
  8
7
 10
233.917293
 20
160.554270
 30
0.0
 11
233.917293
 21
159.054270
 31
0.0
  0
POINT
  8
7
 10
238.317293
 20
165.554270
 30
0.0
  0
LINE
  8
6
 10
384.310682
 20
141.270390
 30
0.0
 11
384.310682
 21
254.941250
 31
0.0
  0
LINE
  8
7
 62
     4
  6
PHANTOM
 10
359.310682
 20
147.256490
 30
0.0
 11
359.310682
 21
250.617950
 31
0.0
  0
LINE
  8
7
 62
     4
  6
PHANTOM
 10
409.310682
 20
147.256490
 30
0.0
 11
409.310682
 21
250.617950
 31
0.0
  0
LINE
  8
7
 10
336.310682
 20
159.054270
 30
0.0
 11
341.310682
 21
159.054270
 31
0.0
  0
LINE
  8
7
 10
336.710682
 20
160.554270
 30
0.0
 11
336.710682
 21
159.054270
 31
0.0
  0
LINE
  8
7
 10
336.310682
 20
160.554270
 30
0.0
 11
336.310682
 21
159.054270
 31
0.0
  0
LINE
  8
7
 10
340.910682
 20
160.554270
 30
0.0
 11
340.910682
 21
159.054270
 31
0.0
  0
LINE
  8
7
 10
341.310682
 20
160.554270
 30
0.0
 11
341.310682
 21
159.054270
 31
0.0
  0
LINE
  8
7
 10
432.310682
 20
159.054270
 30
0.0
 11
427.310682
 21
159.054270
 31
0.0
  0
LINE
  8
7
 10
427.710682
 20
160.554270
 30
0.0
 11
427.710682
 21
159.054270
 31
0.0
  0
LINE
  8
7
 10
427.310682
 20
160.554270
 30
0.0
 11
427.310682
 21
159.054270
 31
0.0
  0
LINE
  8
7
 10
431.910682
 20
160.554270
 30
0.0
 11
431.910682
 21
159.054270
 31
0.0
  0
LINE
  8
7
 10
432.310682
 20
160.554270
 30
0.0
 11
432.310682
 21
159.054270
 31
0.0
  0
ARC
  8
7
 10
424.310682
 20
234.554270
 30
0.0
 40
5.000000
 50
0.000000
 51
90.000000
  0
ARC
  8
7
 10
344.310682
 20
234.554270
 30
0.0
 40
5.000000
 50
90.000000
 51
180.000000
  0
LINE
  8
7
 10
424.310682
 20
239.554270
 30
0.0
 11
344.310682
 21
239.554270
 31
0.0
  0
POINT
  8
7
 10
429.310682
 20
234.554284
 30
0.0
  0
POINT
  8
7
 10
339.310686
 20
234.554284
 30
0.0
  0
ARC
  8
7
 10
434.310682
 20
210.054270
 30
0.0
 40
1.500000
 50
0.000000
 51
90.000000
  0
ARC
  8
7
 10
435.310682
 20
210.554270
 30
0.0
 40
4.000000
 50
0.000000
 51
90.000000
  0
ARC
  8
7
 10
435.010682
 20
210.554270
 30
0.0
 40
1.000000
 50
0.000000
 51
90.000000
  0
LINE
  8
7
 10
439.310682
 20
206.554270
 30
0.0
 11
436.010682
 21
206.554270
 31
0.0
  0
LINE
  8
7
 10
439.310682
 20
206.554270
 30
0.0
 11
439.310682
 21
210.554270
 31
0.0
  0
LINE
  8
7
 10
436.010682
 20
206.554270
 30
0.0
 11
436.010682
 21
210.554270
 31
0.0
  0
LINE
  8
7
 10
434.310682
 20
211.554270
 30
0.0
 11
422.810682
 21
211.554270
 31
0.0
  0
LINE
  8
7
 10
434.310682
 20
216.654270
 30
0.0
 11
425.310682
 21
216.654270
 31
0.0
  0
LINE
  8
7
 10
425.310682
 20
216.654270
 30
0.0
 11
425.310682
 21
217.941764
 31
0.0
  0
LINE
  8
7
 10
434.310682
 20
216.654270
 30
0.0
 11
434.310682
 21
217.941764
 31
0.0
  0
LINE
  8
7
 10
425.635684
 20
215.354271
 30
0.0
 11
425.635684
 21
216.654270
 31
0.0
  0
LINE
  8
7
 10
433.985680
 20
215.354271
 30
0.0
 11
433.985680
 21
216.654270
 31
0.0
  0
LINE
  8
7
 10
424.810682
 20
215.354271
 30
0.0
 11
434.810682
 21
215.354271
 31
0.0
  0
LINE
  8
7
 10
424.810682
 20
215.354271
 30
0.0
 11
424.810682
 21
214.554270
 31
0.0
  0
LINE
  8
7
 10
434.810682
 20
214.554270
 30
0.0
 11
434.810682
 21
215.354271
 31
0.0
  0
LINE
  8
7
 10
429.810682
 20
216.654269
 30
0.0
 11
429.060129
 21
215.354271
 31
0.0
  0
LINE
  8
7
 10
430.561234
 20
216.654269
 30
0.0
 11
429.810682
 21
215.354271
 31
0.0
  0
LINE
  8
7
 10
435.810682
 20
175.054270
 30
0.0
 11
435.810682
 21
167.054270
 31
0.0
  0
ARC
  8
7
 10
434.310682
 20
167.054270
 30
0.0
 40
1.500000
 50
270.000000
 51
360.000000
  0
LINE
  8
7
 10
425.210681
 20
164.554270
 30
0.0
 11
434.410682
 21
164.554270
 31
0.0
  0
LINE
  8
7
 10
434.410681
 20
164.554271
 30
0.0
 11
434.410681
 21
160.954271
 31
0.0
  0
LINE
  8
7
 10
434.410676
 20
160.954277
 30
0.0
 11
433.710677
 21
160.554277
 31
0.0
  0
LINE
  8
7
 10
433.710681
 20
160.554270
 30
0.0
 11
425.910683
 21
160.554270
 31
0.0
  0
LINE
  8
7
 10
425.910687
 20
160.554277
 30
0.0
 11
425.210687
 21
160.954277
 31
0.0
  0
LINE
  8
7
 10
425.210682
 20
160.954271
 30
0.0
 11
425.210682
 21
164.554269
 31
0.0
  0
LINE
  8
7
 10
427.510682
 20
160.954271
 30
0.0
 11
427.510682
 21
164.554270
 31
0.0
  0
LINE
  8
7
 10
432.110682
 20
160.954271
 30
0.0
 11
432.110682
 21
164.554270
 31
0.0
  0
LINE
  8
7
 10
425.210681
 20
164.554270
 30
0.0
 11
424.810682
 21
164.554270
 31
0.0
  0
LINE
  8
7
 10
424.810682
 20
164.554270
 30
0.0
 11
424.810682
 21
165.554270
 31
0.0
  0
LINE
  8
7
 10
424.810682
 20
165.554270
 30
0.0
 11
434.810682
 21
165.554270
 31
0.0
  0
LINE
  8
7
 10
434.810682
 20
165.554270
 30
0.0
 11
434.810682
 21
164.554270
 31
0.0
  0
LINE
  8
7
 10
434.810682
 20
164.554270
 30
0.0
 11
434.410682
 21
164.554270
 31
0.0
  0
POINT
  8
7
 10
429.810682
 20
165.554270
 30
0.0
  0
LINE
  8
7
 10
435.810682
 20
175.054270
 30
0.0
 11
435.810682
 21
210.054270
 31
0.0
  0
LINE
  8
7
 62
     4
  6
DASHED
 10
411.810682
 20
165.554270
 30
0.0
 11
411.810682
 21
211.154270
 31
0.0
  0
LINE
  8
7
 10
387.310682
 20
175.054270
 30
0.0
 11
387.310682
 21
178.054270
 31
0.0
  0
LINE
  8
7
 10
387.310682
 20
175.054270
 30
0.0
 11
381.310682
 21
175.054270
 31
0.0
  0
LINE
  8
7
 10
387.310682
 20
178.054270
 30
0.0
 11
381.310682
 21
178.054270
 31
0.0
  0
LINE
  8
7
 10
381.310682
 20
175.054270
 30
0.0
 11
381.310682
 21
178.054270
 31
0.0
  0
LINE
  8
7
 10
334.310682
 20
211.554270
 30
0.0
 11
345.810682
 21
211.554270
 31
0.0
  0
LINE
  8
7
 10
350.180292
 20
175.054270
 30
0.0
 11
350.180292
 21
165.554270
 31
0.0
  0
LINE
  8
7
 10
344.029752
 20
177.954270
 30
0.0
 11
344.029752
 21
179.254270
 31
0.0
  0
LINE
  8
7
 10
342.536292
 20
177.459200
 30
0.0
 11
341.956482
 21
178.123570
 31
0.0
  0
LINE
  8
7
 10
341.956482
 20
178.123570
 30
0.0
 11
341.288572
 21
178.632640
 31
0.0
  0
LINE
  8
7
 10
341.967292
 20
177.030420
 30
0.0
 11
341.557302
 21
177.633450
 31
0.0
  0
LINE
  8
7
 10
344.439172
 20
177.954270
 30
0.0
 11
344.029752
 21
177.954270
 31
0.0
  0
LINE
  8
7
 10
341.112532
 20
169.128620
 30
0.0
 11
341.798542
 21
169.596110
 31
0.0
  0
LINE
  8
7
 10
341.798542
 20
169.596110
 30
0.0
 11
342.402282
 21
170.224150
 31
0.0
  0
LINE
  8
7
 10
342.402282
 20
170.224150
 30
0.0
 11
342.901402
 21
170.989470
 31
0.0
  0
LINE
  8
7
 10
342.901402
 20
170.989470
 30
0.0
 11
343.277422
 21
171.863720
 31
0.0
  0
LINE
  8
7
 10
343.277422
 20
171.863720
 30
0.0
 11
343.516392
 21
172.814520
 31
0.0
  0
LINE
  8
7
 10
343.516392
 20
172.814520
 30
0.0
 11
343.609482
 21
173.806660
 31
0.0
  0
LINE
  8
7
 10
343.609482
 20
173.806660
 30
0.0
 11
343.553232
 21
174.803390
 31
0.0
  0
LINE
  8
7
 10
343.553232
 20
174.803390
 30
0.0
 11
343.349732
 21
175.767780
 31
0.0
  0
LINE
  8
7
 10
343.349732
 20
175.767780
 30
0.0
 11
343.006512
 21
176.664110
 31
0.0
  0
LINE
  8
7
 10
341.313372
 20
171.943930
 30
0.0
 11
341.489552
 21
172.659710
 31
0.0
  0
LINE
  8
7
 10
341.489552
 20
172.659710
 30
0.0
 11
341.583852
 21
173.418760
 31
0.0
  0
LINE
  8
7
 10
341.583852
 20
173.418760
 30
0.0
 11
341.592972
 21
174.194350
 31
0.0
  0
LINE
  8
7
 10
341.592972
 20
174.194350
 30
0.0
 11
341.516572
 21
174.959190
 31
0.0
  0
LINE
  8
7
 10
341.516572
 20
174.959190
 30
0.0
 11
341.357342
 21
175.686320
 31
0.0
  0
LINE
  8
7
 10
341.393282
 20
170.071550
 30
0.0
 11
341.828452
 21
170.629590
 31
0.0
  0
LINE
  8
7
 10
341.828452
 20
170.629590
 30
0.0
 11
342.188922
 21
171.305820
 31
0.0
  0
LINE
  8
7
 10
342.188922
 20
171.305820
 30
0.0
 11
342.461832
 21
172.076130
 31
0.0
  0
LINE
  8
7
 10
342.461832
 20
172.076130
 30
0.0
 11
342.637452
 21
172.913070
 31
0.0
  0
LINE
  8
7
 10
342.637452
 20
172.913070
 30
0.0
 11
342.709522
 21
173.786800
 31
0.0
  0
LINE
  8
7
 10
342.709522
 20
173.786800
 30
0.0
 11
342.675472
 21
174.666180
 31
0.0
  0
LINE
  8
7
 10
342.675472
 20
174.666180
 30
0.0
 11
342.536532
 21
175.519860
 31
0.0
  0
LINE
  8
7
 10
342.536532
 20
175.519860
 30
0.0
 11
342.297632
 21
176.317420
 31
0.0
  0
LINE
  8
7
 10
344.439172
 20
168.554270
 30
0.0
 11
344.439172
 21
177.954270
 31
0.0
  0
LINE
  8
7
 10
345.730552
 20
185.054270
 30
0.0
 11
345.730552
 21
168.554270
 31
0.0
  0
LINE
  8
7
 10
343.006512
 20
176.664110
 30
0.0
 11
342.536292
 21
177.459200
 31
0.0
  0
LINE
  8
7
 10
342.297632
 20
176.317420
 30
0.0
 11
341.967292
 21
177.030420
 31
0.0
  0
LINE
  8
7
 10
340.557282
 20
178.967530
 30
0.0
 11
339.789712
 21
179.115860
 31
0.0
  0
LINE
  8
7
 10
339.789712
 20
179.115860
 30
0.0
 11
339.014292
 21
179.072110
 31
0.0
  0
LINE
  8
7
 10
339.014292
 20
179.072110
 30
0.0
 11
338.259742
 21
178.837920
 31
0.0
  0
LINE
  8
7
 10
340.559112
 20
178.428300
 30
0.0
 11
340.006502
 21
178.591790
 31
0.0
  0
LINE
  8
7
 10
340.006502
 20
178.591790
 30
0.0
 11
339.444122
 21
178.589650
 31
0.0
  0
LINE
  8
7
 10
339.444122
 20
178.589650
 30
0.0
 11
338.892012
 21
178.421960
 31
0.0
  0
LINE
  8
7
 10
335.911732
 20
178.421960
 30
0.0
 11
335.911732
 21
179.254270
 31
0.0
  0
LINE
  8
7
 10
335.120832
 20
185.054270
 30
0.0
 11
335.120832
 21
178.421960
 31
0.0
  0
LINE
  8
7
 10
338.259742
 20
178.837920
 30
0.0
 11
337.554002
 21
178.421960
 31
0.0
  0
LINE
  8
7
 10
338.079542
 20
169.109480
 30
0.0
 11
338.824572
 21
168.829240
 31
0.0
  0
LINE
  8
7
 10
338.824572
 20
168.829240
 30
0.0
 11
339.597492
 21
168.737950
 31
0.0
  0
LINE
  8
7
 10
339.597492
 20
168.737950
 30
0.0
 11
340.369682
 21
168.838990
 31
0.0
  0
LINE
  8
7
 10
340.368662
 20
170.295440
 30
0.0
 11
340.742882
 21
170.740610
 31
0.0
  0
LINE
  8
7
 10
338.699972
 20
169.568280
 30
0.0
 11
339.243532
 21
169.342270
 31
0.0
  0
LINE
  8
7
 10
339.243532
 20
169.342270
 30
0.0
 11
339.804522
 21
169.280330
 31
0.0
  0
LINE
  8
7
 10
339.804522
 20
169.280330
 30
0.0
 11
340.362952
 21
169.384680
 31
0.0
  0
LINE
  8
7
 10
338.033362
 20
169.568280
 30
0.0
 11
339.344182
 21
174.007590
 31
0.0
  0
LINE
  8
7
 10
335.120832
 20
169.568280
 30
0.0
 11
335.120832
 21
168.554270
 31
0.0
  0
LINE
  8
7
 10
334.957032
 20
174.316710
 30
0.0
 11
335.965352
 21
174.316710
 31
0.0
  0
LINE
  8
7
 10
334.957032
 20
173.696210
 30
0.0
 11
335.965352
 21
173.696210
 31
0.0
  0
LINE
  8
7
 10
335.965352
 20
174.316710
 30
0.0
 11
335.965352
 21
175.945530
 31
0.0
  0
LINE
  8
7
 10
335.965352
 20
172.170820
 30
0.0
 11
335.965352
 21
173.696210
 31
0.0
  0
LINE
  8
7
 10
336.353162
 20
175.945530
 30
0.0
 11
335.965352
 21
175.945530
 31
0.0
  0
LINE
  8
7
 10
334.957032
 20
173.696210
 30
0.0
 11
334.957032
 21
174.316710
 31
0.0
  0
LINE
  8
7
 10
336.353162
 20
174.316710
 30
0.0
 11
337.490742
 21
174.316710
 31
0.0
  0
LINE
  8
7
 10
336.353162
 20
173.696210
 30
0.0
 11
337.490742
 21
173.696210
 31
0.0
  0
LINE
  8
7
 10
336.353162
 20
174.316710
 30
0.0
 11
336.353162
 21
175.945530
 31
0.0
  0
LINE
  8
7
 10
336.353162
 20
172.170820
 30
0.0
 11
336.353162
 21
173.696210
 31
0.0
  0
LINE
  8
7
 10
335.965352
 20
172.170820
 30
0.0
 11
336.353162
 21
172.170820
 31
0.0
  0
LINE
  8
7
 10
337.390012
 20
169.568280
 30
0.0
 11
338.079542
 21
169.109480
 31
0.0
  0
LINE
  8
7
 10
337.490742
 20
174.316710
 30
0.0
 11
337.490742
 21
173.696210
 31
0.0
  0
LINE
  8
7
 10
338.025472
 20
178.421960
 30
0.0
 11
339.344182
 21
174.007590
 31
0.0
  0
LINE
  8
7
 10
335.911732
 20
179.254270
 30
0.0
 11
344.029752
 21
179.254270
 31
0.0
  0
LINE
  8
7
 10
340.369682
 20
168.838990
 30
0.0
 11
341.112532
 21
169.128620
 31
0.0
  0
LINE
  8
7
 10
341.288572
 20
178.632640
 30
0.0
 11
340.557282
 21
178.967530
 31
0.0
  0
LINE
  8
7
 10
340.742882
 20
170.740610
 30
0.0
 11
341.061532
 21
171.296630
 31
0.0
  0
LINE
  8
7
 10
341.061532
 20
171.296630
 30
0.0
 11
341.313372
 21
171.943930
 31
0.0
  0
LINE
  8
7
 10
341.357342
 20
175.686320
 30
0.0
 11
341.120912
 21
176.350150
 31
0.0
  0
LINE
  8
7
 10
341.120912
 20
176.350150
 30
0.0
 11
340.815582
 21
176.927310
 31
0.0
  0
LINE
  8
7
 10
340.815582
 20
176.927310
 30
0.0
 11
340.452112
 21
177.397460
 31
0.0
  0
LINE
  8
7
 10
340.362952
 20
169.384680
 30
0.0
 11
340.898902
 21
169.651590
 31
0.0
  0
LINE
  8
7
 10
340.898902
 20
169.651590
 30
0.0
 11
341.393282
 21
170.071550
 31
0.0
  0
LINE
  8
7
 10
341.557302
 20
177.633450
 30
0.0
 11
341.082262
 21
178.105010
 31
0.0
  0
LINE
  8
7
 10
341.082262
 20
178.105010
 30
0.0
 11
340.559112
 21
178.428300
 31
0.0
  0
LINE
  8
7
 10
341.464772
 20
174.007590
 30
0.0
 11
339.344182
 21
174.007590
 31
0.0
  0
LINE
  8
7
 10
340.146062
 20
178.421960
 30
0.0
 11
341.464772
 21
174.007590
 31
0.0
  0
LINE
  8
7
 10
340.153952
 20
169.568280
 30
0.0
 11
341.464772
 21
174.007590
 31
0.0
  0
ARC
  8
7
 10
346.730552
 20
166.554270
 30
0.0
 40
1.000000
 50
180.000000
 51
270.000000
  0
LINE
  8
7
 10
345.730552
 20
168.554270
 30
0.0
 11
345.730552
 21
166.554270
 31
0.0
  0
LINE
  8
7
 62
     4
  6
DASHED
 10
356.810682
 20
165.554270
 30
0.0
 11
356.810682
 21
211.154270
 31
0.0
  0
LINE
  8
7
 10
350.180292
 20
175.054270
 30
0.0
 11
350.180292
 21
211.154270
 31
0.0
  0
CIRCLE
  8
7
 10
413.810682
 20
226.554270
 30
0.0
 40
5.249999
  0
CIRCLE
  8
7
 10
413.810682
 20
226.554270
 30
0.0
 40
5.749999
  0
LINE
  8
7
 10
339.310682
 20
219.943850
 30
0.0
 11
339.310682
 21
234.554270
 31
0.0
  0
LINE
  8
7
 10
429.310682
 20
219.950280
 30
0.0
 11
429.310682
 21
234.554270
 31
0.0
  0
POINT
  8
7
 10
435.010684
 20
211.554278
 30
0.0
  0
POINT
  8
7
 10
434.310679
 20
165.554276
 30
0.0
  0
ARC
  8
7
 10
333.610682
 20
210.554270
 30
0.0
 40
1.000000
 50
90.000000
 51
180.000000
  0
ARC
  8
7
 10
333.310682
 20
210.554270
 30
0.0
 40
4.000000
 50
90.000000
 51
180.000000
  0
LINE
  8
7
 10
332.610682
 20
206.554270
 30
0.0
 11
329.310682
 21
206.554270
 31
0.0
  0
LINE
  8
7
 10
329.310682
 20
206.554270
 30
0.0
 11
329.310682
 21
210.554270
 31
0.0
  0
LINE
  8
7
 10
332.610682
 20
206.554270
 30
0.0
 11
332.610682
 21
210.554270
 31
0.0
  0
ARC
  8
7
 10
332.509662
 20
184.554270
 30
0.0
 40
0.500000
 50
90.000000
 51
180.000000
  0
LINE
  8
7
 10
333.835262
 20
184.554270
 30
0.0
 11
333.835262
 21
176.942090
 31
0.0
  0
ARC
  8
7
 10
328.487472
 20
178.054270
 30
0.0
 40
0.500000
 50
90.000000
 51
180.000000
  0
ARC
  8
7
 10
329.252962
 20
178.054270
 30
0.0
 40
0.500000
 50
90.000000
 51
180.000000
  0
LINE
  8
7
 10
333.835262
 20
171.073090
 30
0.0
 11
333.835262
 21
168.554270
 31
0.0
  0
LINE
  8
7
 10
327.987472
 20
174.670780
 30
0.0
 11
327.892522
 21
175.259370
 31
0.0
  0
LINE
  8
7
 10
327.885642
 20
172.460500
 30
0.0
 11
327.987472
 21
173.081550
 31
0.0
  0
LINE
  8
7
 10
332.009662
 20
184.554270
 30
0.0
 11
332.009662
 21
168.554270
 31
0.0
  0
LINE
  8
7
 10
330.632352
 20
185.054270
 30
0.0
 11
330.632352
 21
168.554270
 31
0.0
  0
LINE
  8
7
 10
328.752962
 20
178.054270
 30
0.0
 11
328.752962
 21
168.554270
 31
0.0
  0
LINE
  8
7
 10
327.987472
 20
168.554270
 30
0.0
 11
327.987472
 21
178.054270
 31
0.0
  0
LINE
  8
7
 10
325.270732
 20
178.421960
 30
0.0
 11
325.270732
 21
184.054270
 31
0.0
  0
ARC
  8
7
 10
326.270732
 20
184.054270
 30
0.0
 40
1.000000
 50
90.000000
 51
180.000000
  0
LINE
  8
7
 10
326.986692
 20
178.421960
 30
0.0
 11
321.737882
 21
178.421960
 31
0.0
  0
LINE
  8
7
 10
325.270732
 20
168.554270
 30
0.0
 11
325.270732
 21
169.568280
 31
0.0
  0
LINE
  8
7
 10
321.490272
 20
174.304240
 30
0.0
 11
322.498592
 21
174.304240
 31
0.0
  0
LINE
  8
7
 10
321.490272
 20
173.683740
 30
0.0
 11
322.498592
 21
173.683740
 31
0.0
  0
LINE
  8
7
 10
321.490272
 20
173.683740
 30
0.0
 11
321.490272
 21
174.304240
 31
0.0
  0
LINE
  8
7
 10
322.886402
 20
174.304240
 30
0.0
 11
324.023982
 21
174.304240
 31
0.0
  0
LINE
  8
7
 10
322.886402
 20
173.683740
 30
0.0
 11
324.023982
 21
173.683740
 31
0.0
  0
LINE
  8
7
 10
322.498592
 20
174.304240
 30
0.0
 11
322.498592
 21
175.933060
 31
0.0
  0
LINE
  8
7
 10
322.498592
 20
172.158350
 30
0.0
 11
322.498592
 21
173.683740
 31
0.0
  0
LINE
  8
7
 10
322.886402
 20
174.304240
 30
0.0
 11
322.886402
 21
175.933060
 31
0.0
  0
LINE
  8
7
 10
322.886402
 20
172.158350
 30
0.0
 11
322.886402
 21
173.683740
 31
0.0
  0
LINE
  8
7
 10
322.498592
 20
172.158350
 30
0.0
 11
322.886402
 21
172.158350
 31
0.0
  0
LINE
  8
7
 10
322.886402
 20
175.933060
 30
0.0
 11
322.498592
 21
175.933060
 31
0.0
  0
LINE
  8
7
 10
323.926252
 20
169.568280
 30
0.0
 11
324.822932
 21
173.995120
 31
0.0
  0
LINE
  8
7
 10
324.023982
 20
174.304240
 30
0.0
 11
324.023982
 21
173.683740
 31
0.0
  0
LINE
  8
7
 10
321.743082
 20
169.568280
 30
0.0
 11
327.001332
 21
169.568280
 31
0.0
  0
LINE
  8
7
 10
323.912222
 20
178.421960
 30
0.0
 11
324.823542
 21
173.995120
 31
0.0
  0
LINE
  8
7
 10
330.632352
 20
178.554270
 30
0.0
 11
325.270732
 21
178.554270
 31
0.0
  0
LINE
  8
7
 10
327.892522
 20
175.259370
 30
0.0
 11
327.747572
 21
175.817820
 31
0.0
  0
LINE
  8
7
 10
327.747572
 20
175.817820
 30
0.0
 11
327.555772
 21
176.333960
 31
0.0
  0
LINE
  8
7
 10
327.555772
 20
176.333960
 30
0.0
 11
327.321302
 21
176.796530
 31
0.0
  0
LINE
  8
7
 10
326.975832
 20
169.442370
 30
0.0
 11
327.506102
 21
169.765600
 31
0.0
  0
LINE
  8
7
 10
327.506102
 20
169.765600
 30
0.0
 11
327.987472
 21
170.240890
 31
0.0
  0
LINE
  8
7
 10
327.987472
 20
177.624710
 30
0.0
 11
327.511522
 21
178.095710
 31
0.0
  0
LINE
  8
7
 10
327.511522
 20
178.095710
 30
0.0
 11
326.987502
 21
178.418020
 31
0.0
  0
LINE
  8
7
 10
327.898012
 20
173.995120
 30
0.0
 11
324.823542
 21
173.995120
 31
0.0
  0
LINE
  8
7
 10
327.262932
 20
170.859780
 30
0.0
 11
327.518922
 21
171.335940
 31
0.0
  0
LINE
  8
7
 10
327.518922
 20
171.335940
 30
0.0
 11
327.728182
 21
171.873880
 31
0.0
  0
LINE
  8
7
 10
327.728182
 20
171.873880
 30
0.0
 11
327.885642
 21
172.460500
 31
0.0
  0
LINE
  8
7
 10
326.986692
 20
178.421960
 30
0.0
 11
327.898012
 21
173.995120
 31
0.0
  0
LINE
  8
7
 10
327.001332
 20
169.568280
 30
0.0
 11
327.898012
 21
173.995120
 31
0.0
  0
ARC
  8
7
 10
331.632352
 20
166.554270
 30
0.0
 40
1.000000
 50
180.000000
 51
270.000000
  0
LINE
  8
7
 10
330.632352
 20
168.554270
 30
0.0
 11
330.632352
 21
166.554270
 31
0.0
  0
LINE
  8
7
 10
333.499652
 20
168.554270
 30
0.0
 11
333.499652
 21
166.554270
 31
0.0
  0
ARC
  8
7
 10
326.270732
 20
166.554270
 30
0.0
 40
1.000000
 50
180.000000
 51
270.000000
  0
LINE
  8
7
 10
325.270732
 20
168.554270
 30
0.0
 11
325.270732
 21
166.554270
 31
0.0
  0
LINE
  8
7
 10
321.743082
 20
169.568280
 30
0.0
 11
320.816652
 21
174.007590
 31
0.0
  0
LINE
  8
7
 10
321.737882
 20
178.421960
 30
0.0
 11
320.816652
 21
174.007590
 31
0.0
  0
LINE
  8
7
 10
332.810682
 20
185.054270
 30
0.0
 11
332.810682
 21
210.054270
 31
0.0
  0
LINE
  8
7
 10
239.317293
 20
214.554270
 30
0.0
 11
239.317293
 21
208.054270
 31
0.0
  0
ARC
  8
7
 10
237.817293
 20
208.054270
 30
0.0
 40
1.500000
 50
270.000000
 51
360.000000
  0
LINE
  8
7
 10
241.111653
 20
179.988230
 30
0.0
 11
241.111653
 21
181.736280
 31
0.0
  0
LINE
  8
7
 10
243.211459
 20
179.988230
 30
0.0
 11
243.211459
 21
184.054270
 31
0.0
  0
LINE
  8
7
 10
242.542492
 20
177.398170
 30
0.0
 11
242.154679
 21
177.398170
 31
0.0
  0
ARC
  8
7
 10
242.211459
 20
184.054270
 30
0.0
 40
1.000000
 50
0.000000
 51
90.000000
  0
LINE
  8
7
 10
241.111653
 20
168.554270
 30
0.0
 11
241.111653
 21
171.134560
 31
0.0
  0
LINE
  8
7
 10
242.154679
 20
173.623460
 30
0.0
 11
242.542492
 21
173.623460
 31
0.0
  0
LINE
  8
7
 10
242.154679
 20
175.252270
 30
0.0
 11
242.154679
 21
173.623460
 31
0.0
  0
LINE
  8
7
 10
242.542492
 20
175.252270
 30
0.0
 11
242.542492
 21
173.623460
 31
0.0
  0
LINE
  8
7
 10
242.154679
 20
175.872770
 30
0.0
 11
241.017096
 21
175.872770
 31
0.0
  0
LINE
  8
7
 10
242.154679
 20
175.252270
 30
0.0
 11
241.017096
 21
175.252270
 31
0.0
  0
LINE
  8
7
 10
243.550804
 20
175.872770
 30
0.0
 11
243.550804
 21
175.252270
 31
0.0
  0
LINE
  8
7
 10
243.550804
 20
175.872770
 30
0.0
 11
242.542492
 21
175.872770
 31
0.0
  0
LINE
  8
7
 10
243.550804
 20
175.252270
 30
0.0
 11
242.542492
 21
175.252270
 31
0.0
  0
LINE
  8
7
 10
244.896071
 20
171.134560
 30
0.0
 11
245.817293
 21
175.548920
 31
0.0
  0
LINE
  8
7
 10
242.154679
 20
177.398170
 30
0.0
 11
242.154679
 21
175.872770
 31
0.0
  0
LINE
  8
7
 10
242.542492
 20
177.398170
 30
0.0
 11
242.542492
 21
175.872770
 31
0.0
  0
LINE
  8
7
 10
244.890867
 20
179.988230
 30
0.0
 11
245.817293
 21
175.548920
 31
0.0
  0
LINE
  8
7
 10
237.539745
 20
179.988230
 30
0.0
 11
237.009472
 21
179.665000
 31
0.0
  0
LINE
  8
7
 10
237.009472
 20
179.665000
 30
0.0
 11
236.045355
 21
178.713049
 31
0.0
  0
LINE
  8
7
 10
239.628855
 20
171.134560
 30
0.0
 11
238.717538
 21
175.561390
 31
0.0
  0
LINE
  8
7
 10
236.444622
 20
175.561390
 30
0.0
 11
236.648557
 21
174.297140
 31
0.0
  0
LINE
  8
7
 10
237.554388
 20
171.134560
 30
0.0
 11
236.643070
 21
175.561390
 31
0.0
  0
LINE
  8
7
 10
236.643070
 20
175.561390
 30
0.0
 11
238.717538
 21
175.561390
 31
0.0
  0
LINE
  8
7
 10
236.045355
 20
172.434794
 30
0.0
 11
237.029560
 21
171.460800
 31
0.0
  0
LINE
  8
7
 10
237.029560
 20
171.460800
 30
0.0
 11
237.553576
 21
171.138500
 31
0.0
  0
LINE
  8
7
 10
236.648557
 20
174.297140
 30
0.0
 11
236.793508
 21
173.738690
 31
0.0
  0
LINE
  8
7
 10
236.793508
 20
173.738690
 30
0.0
 11
236.985307
 21
173.222560
 31
0.0
  0
LINE
  8
7
 10
236.985307
 20
173.222560
 30
0.0
 11
237.219774
 21
172.759980
 31
0.0
  0
LINE
  8
7
 10
234.546384
 20
168.554270
 30
0.0
 11
234.546384
 21
185.054270
 31
0.0
  0
LINE
  8
7
 10
236.045355
 20
168.554270
 30
0.0
 11
236.045355
 21
185.054270
 31
0.0
  0
LINE
  8
7
 10
239.614824
 20
179.988230
 30
0.0
 11
238.718149
 21
175.561390
 31
0.0
  0
LINE
  8
7
 10
237.539745
 20
179.988230
 30
0.0
 11
236.643070
 21
175.561390
 31
0.0
  0
LINE
  8
7
 10
241.111653
 20
181.736280
 30
0.0
 11
236.045355
 21
181.736280
 31
0.0
  0
LINE
  8
7
 10
244.890867
 20
179.988230
 30
0.0
 11
237.539745
 21
179.988230
 31
0.0
  0
LINE
  8
7
 10
237.554388
 20
171.134560
 30
0.0
 11
244.896071
 21
171.134560
 31
0.0
  0
LINE
  8
7
 10
241.017096
 20
175.252270
 30
0.0
 11
241.017096
 21
175.872770
 31
0.0
  0
ARC
  8
7
 10
242.211459
 20
166.554270
 30
0.0
 40
1.000000
 50
270.000000
 51
360.000000
  0
LINE
  8
7
 10
243.211459
 20
166.554270
 30
0.0
 11
243.211459
 21
171.134560
 31
0.0
  0
LINE
  8
7
 10
238.317293
 20
206.640060
 30
0.0
 11
238.317293
 21
185.054270
 31
0.0
  0
LINE
  8
7
 10
214.817293
 20
214.554270
 30
0.0
 11
214.817293
 21
208.054270
 31
0.0
  0
ARC
  8
7
 10
209.817293
 20
215.554270
 30
0.0
 40
1.000000
 50
180.000000
 51
270.000000
  0
LINE
  8
7
 10
209.817293
 20
211.554270
 30
0.0
 11
214.817293
 21
211.554270
 31
0.0
  0
ARC
  8
7
 10
216.317293
 20
208.054270
 30
0.0
 40
1.500000
 50
180.000000
 51
270.000000
  0
LINE
  8
7
 10
230.112941
 20
178.554270
 30
0.0
 11
227.079572
 21
178.554270
 31
0.0
  0
LINE
  8
7
 10
229.569757
 20
178.554270
 30
0.0
 11
229.569757
 21
185.054270
 31
0.0
  0
LINE
  8
7
 10
227.079572
 20
168.554270
 30
0.0
 11
227.079572
 21
178.554270
 31
0.0
  0
LINE
  8
7
 10
230.112941
 20
168.554270
 30
0.0
 11
230.112941
 21
178.554270
 31
0.0
  0
LINE
  8
7
 10
227.763612
 20
168.554270
 30
0.0
 11
227.763612
 21
178.554270
 31
0.0
  0
LINE
  8
7
 10
233.014295
 20
168.554270
 30
0.0
 11
233.014295
 21
185.054270
 31
0.0
  0
LINE
  8
7
 10
224.873854
 20
179.988130
 30
0.0
 11
224.873854
 21
180.436280
 31
0.0
  0
LINE
  8
7
 10
224.464440
 20
180.436280
 30
0.0
 11
224.464440
 21
181.736280
 31
0.0
  0
LINE
  8
7
 10
224.873854
 20
180.436280
 30
0.0
 11
224.464440
 21
180.436280
 31
0.0
  0
LINE
  8
7
 10
221.653155
 20
179.988130
 30
0.0
 11
220.963623
 21
180.446940
 31
0.0
  0
LINE
  8
7
 10
220.963623
 20
180.446940
 30
0.0
 11
220.218598
 21
180.727170
 31
0.0
  0
LINE
  8
7
 10
223.577818
 20
177.385590
 30
0.0
 11
223.190006
 21
177.385590
 31
0.0
  0
LINE
  8
7
 10
224.873854
 20
168.554270
 30
0.0
 11
224.873854
 21
171.134450
 31
0.0
  0
LINE
  8
7
 10
224.586131
 20
175.860200
 30
0.0
 11
224.586131
 21
175.239700
 31
0.0
  0
LINE
  8
7
 10
224.586131
 20
175.860200
 30
0.0
 11
223.577818
 21
175.860200
 31
0.0
  0
LINE
  8
7
 10
224.586131
 20
175.239700
 30
0.0
 11
223.577818
 21
175.239700
 31
0.0
  0
LINE
  8
7
 10
220.783428
 20
170.718490
 30
0.0
 11
221.489163
 21
171.134450
 31
0.0
  0
LINE
  8
7
 10
222.052422
 20
175.239700
 30
0.0
 11
222.052422
 21
175.860200
 31
0.0
  0
LINE
  8
7
 10
223.190006
 20
175.239700
 30
0.0
 11
223.190006
 21
173.610880
 31
0.0
  0
LINE
  8
7
 10
223.190006
 20
175.860200
 30
0.0
 11
222.052422
 21
175.860200
 31
0.0
  0
LINE
  8
7
 10
223.190006
 20
175.239700
 30
0.0
 11
222.052422
 21
175.239700
 31
0.0
  0
LINE
  8
7
 10
223.190006
 20
173.610880
 30
0.0
 11
223.577818
 21
173.610880
 31
0.0
  0
LINE
  8
7
 10
223.577818
 20
175.239700
 30
0.0
 11
223.577818
 21
173.610880
 31
0.0
  0
LINE
  8
7
 10
223.190006
 20
177.385590
 30
0.0
 11
223.190006
 21
175.860200
 31
0.0
  0
LINE
  8
7
 10
223.577818
 20
177.385590
 30
0.0
 11
223.577818
 21
175.860200
 31
0.0
  0
LINE
  8
7
 10
225.893871
 20
179.988130
 30
0.0
 11
226.820297
 21
175.548820
 31
0.0
  0
LINE
  8
7
 10
225.899076
 20
171.134450
 30
0.0
 11
226.820297
 21
175.548820
 31
0.0
  0
LINE
  8
7
 10
219.799634
 20
180.214140
 30
0.0
 11
219.238642
 21
180.276080
 31
0.0
  0
LINE
  8
7
 10
219.238642
 20
180.276080
 30
0.0
 11
218.680217
 21
180.171730
 31
0.0
  0
LINE
  8
7
 10
218.680217
 20
180.171730
 30
0.0
 11
218.144265
 21
179.904820
 31
0.0
  0
LINE
  8
7
 10
218.144265
 20
179.904820
 30
0.0
 11
217.649889
 21
179.484860
 31
0.0
  0
LINE
  8
7
 10
217.649889
 20
179.484860
 30
0.0
 11
217.214711
 21
178.926820
 31
0.0
  0
LINE
  8
7
 10
218.674504
 20
179.260970
 30
0.0
 11
218.300282
 21
178.815800
 31
0.0
  0
LINE
  8
7
 10
218.300282
 20
178.815800
 30
0.0
 11
217.981639
 21
178.259780
 31
0.0
  0
LINE
  8
7
 10
217.981639
 20
178.259780
 30
0.0
 11
217.729794
 21
177.612480
 31
0.0
  0
LINE
  8
7
 10
219.445677
 20
180.818460
 30
0.0
 11
218.673489
 21
180.717420
 31
0.0
  0
LINE
  8
7
 10
218.673489
 20
180.717420
 30
0.0
 11
217.930634
 21
180.427790
 31
0.0
  0
LINE
  8
7
 10
217.930634
 20
180.427790
 30
0.0
 11
217.244630
 21
179.960300
 31
0.0
  0
LINE
  8
7
 10
214.936999
 20
180.436280
 30
0.0
 11
215.346413
 21
180.436280
 31
0.0
  0
LINE
  8
7
 10
215.346413
 20
180.436280
 30
0.0
 11
215.346413
 21
181.736280
 31
0.0
  0
LINE
  8
7
 10
216.141761
 20
178.566940
 30
0.0
 11
215.765747
 21
177.692690
 31
0.0
  0
LINE
  8
7
 10
217.214711
 20
178.926820
 30
0.0
 11
216.854245
 21
178.250590
 31
0.0
  0
LINE
  8
7
 10
216.854245
 20
178.250590
 30
0.0
 11
216.581338
 21
177.480280
 31
0.0
  0
LINE
  8
7
 10
217.244630
 20
179.960300
 30
0.0
 11
216.640884
 21
179.332260
 31
0.0
  0
LINE
  8
7
 10
216.640884
 20
179.332260
 30
0.0
 11
216.141761
 21
178.566940
 31
0.0
  0
LINE
  8
7
 10
218.897105
 20
171.134450
 30
0.0
 11
217.578397
 21
175.548820
 31
0.0
  0
LINE
  8
7
 10
217.578397
 20
175.548820
 30
0.0
 11
219.198982
 21
175.548820
 31
0.0
  0
LINE
  8
7
 10
217.075871
 20
172.525990
 30
0.0
 11
217.485863
 21
171.922960
 31
0.0
  0
LINE
  8
7
 10
217.485863
 20
171.922960
 30
0.0
 11
217.960902
 21
171.451400
 31
0.0
  0
LINE
  8
7
 10
217.960902
 20
171.451400
 30
0.0
 11
218.484052
 21
171.128110
 31
0.0
  0
LINE
  8
7
 10
218.484052
 20
171.128110
 30
0.0
 11
219.036667
 21
170.964620
 31
0.0
  0
LINE
  8
7
 10
219.036667
 20
170.964620
 30
0.0
 11
219.599049
 21
170.966760
 31
0.0
  0
LINE
  8
7
 10
217.459312
 20
176.137650
 30
0.0
 11
217.450199
 21
175.362060
 31
0.0
  0
LINE
  8
7
 10
217.450199
 20
175.362060
 30
0.0
 11
217.526599
 21
174.597220
 31
0.0
  0
LINE
  8
7
 10
217.526599
 20
174.597220
 30
0.0
 11
217.685821
 21
173.870090
 31
0.0
  0
LINE
  8
7
 10
217.685821
 20
173.870090
 30
0.0
 11
217.922260
 21
173.206260
 31
0.0
  0
LINE
  8
7
 10
217.922260
 20
173.206260
 30
0.0
 11
218.227588
 21
172.629100
 31
0.0
  0
LINE
  8
7
 10
218.227588
 20
172.629100
 30
0.0
 11
218.591056
 21
172.158950
 31
0.0
  0
LINE
  8
7
 10
217.086680
 20
171.432840
 30
0.0
 11
217.754596
 21
170.923770
 31
0.0
  0
LINE
  8
7
 10
217.754596
 20
170.923770
 30
0.0
 11
218.485883
 21
170.588880
 31
0.0
  0
LINE
  8
7
 10
218.485883
 20
170.588880
 30
0.0
 11
219.253453
 21
170.440550
 31
0.0
  0
LINE
  8
7
 10
219.253453
 20
170.440550
 30
0.0
 11
220.028875
 21
170.484300
 31
0.0
  0
LINE
  8
7
 10
216.405718
 20
176.643340
 30
0.0
 11
216.333647
 21
175.769610
 31
0.0
  0
LINE
  8
7
 10
216.333647
 20
175.769610
 30
0.0
 11
216.367692
 21
174.890230
 31
0.0
  0
LINE
  8
7
 10
215.526771
 20
176.741890
 30
0.0
 11
215.433683
 21
175.749750
 31
0.0
  0
LINE
  8
7
 10
215.433683
 20
175.749750
 30
0.0
 11
215.489932
 21
174.753030
 31
0.0
  0
LINE
  8
7
 10
215.489932
 20
174.753030
 30
0.0
 11
215.693434
 21
173.788630
 31
0.0
  0
LINE
  8
7
 10
215.693434
 20
173.788630
 30
0.0
 11
216.036652
 21
172.892300
 31
0.0
  0
LINE
  8
7
 10
216.036652
 20
172.892300
 30
0.0
 11
216.506873
 21
172.097220
 31
0.0
  0
LINE
  8
7
 10
216.367692
 20
174.890230
 30
0.0
 11
216.506640
 21
174.036550
 31
0.0
  0
LINE
  8
7
 10
216.506640
 20
174.036550
 30
0.0
 11
216.745538
 21
173.238990
 31
0.0
  0
LINE
  8
7
 10
216.745538
 20
173.238990
 30
0.0
 11
217.075871
 21
172.525990
 31
0.0
  0
LINE
  8
7
 10
216.506873
 20
172.097220
 30
0.0
 11
217.086680
 21
171.432840
 31
0.0
  0
LINE
  8
7
 10
214.936999
 20
168.554270
 30
0.0
 11
214.936999
 21
180.436280
 31
0.0
  0
LINE
  8
7
 10
214.064829
 20
185.054270
 30
0.0
 11
214.064829
 21
168.554270
 31
0.0
  0
LINE
  8
7
 10
218.889216
 20
179.988130
 30
0.0
 11
217.578397
 21
175.548820
 31
0.0
  0
LINE
  8
7
 10
216.581338
 20
177.480280
 30
0.0
 11
216.405718
 21
176.643340
 31
0.0
  0
LINE
  8
7
 10
217.729794
 20
177.612480
 30
0.0
 11
217.553617
 21
176.896710
 31
0.0
  0
LINE
  8
7
 10
217.553617
 20
176.896710
 30
0.0
 11
217.459312
 21
176.137650
 31
0.0
  0
LINE
  8
7
 10
215.765747
 20
177.692690
 30
0.0
 11
215.526771
 21
176.741890
 31
0.0
  0
LINE
  8
7
 10
211.217975
 20
165.554270
 30
0.0
 11
211.217975
 21
185.054270
 31
0.0
  0
LINE
  8
7
 10
215.346413
 20
181.736280
 30
0.0
 11
224.464440
 21
181.736280
 31
0.0
  0
LINE
  8
7
 10
220.343196
 20
179.988130
 30
0.0
 11
219.799634
 21
180.214140
 31
0.0
  0
LINE
  8
7
 10
219.599049
 20
170.966760
 30
0.0
 11
220.151151
 21
171.134450
 31
0.0
  0
LINE
  8
7
 10
220.218598
 20
180.727170
 30
0.0
 11
219.445677
 21
180.818460
 31
0.0
  0
LINE
  8
7
 10
220.028875
 20
170.484300
 30
0.0
 11
220.783428
 21
170.718490
 31
0.0
  0
LINE
  8
7
 10
225.893871
 20
179.988130
 30
0.0
 11
218.889216
 21
179.988130
 31
0.0
  0
LINE
  8
7
 10
225.899076
 20
171.134450
 30
0.0
 11
218.897105
 21
171.134450
 31
0.0
  0
LINE
  8
7
 10
220.517690
 20
171.134450
 30
0.0
 11
219.198982
 21
175.548820
 31
0.0
  0
LINE
  8
7
 10
220.509801
 20
179.988130
 30
0.0
 11
219.198982
 21
175.548820
 31
0.0
  0
LINE
  8
7
 62
     4
  6
DASHED
 10
207.817293
 20
211.154270
 30
0.0
 11
207.817293
 21
165.554270
 31
0.0
  0
LINE
  8
7
 10
243.211459
 20
168.554270
 30
0.0
 11
211.217975
 21
168.554270
 31
0.0
  0
LINE
  8
7
 10
211.217975
 20
185.054270
 30
0.0
 11
242.211459
 21
185.054270
 31
0.0
  0
LINE
  8
7
 10
236.417293
 20
164.554270
 30
0.0
 11
227.217292
 21
164.554270
 31
0.0
  0
LINE
  8
7
 10
227.217293
 20
164.554271
 30
0.0
 11
227.217293
 21
160.954271
 31
0.0
  0
LINE
  8
7
 10
227.217298
 20
160.954277
 30
0.0
 11
227.917298
 21
160.554277
 31
0.0
  0
LINE
  8
7
 10
227.917294
 20
160.554270
 30
0.0
 11
235.717292
 21
160.554270
 31
0.0
  0
LINE
  8
7
 10
235.717288
 20
160.554277
 30
0.0
 11
236.417287
 21
160.954277
 31
0.0
  0
LINE
  8
7
 10
236.417292
 20
160.954271
 30
0.0
 11
236.417292
 21
164.554269
 31
0.0
  0
LINE
  8
7
 10
234.117293
 20
160.954271
 30
0.0
 11
234.117293
 21
164.554270
 31
0.0
  0
LINE
  8
7
 10
229.517293
 20
160.954271
 30
0.0
 11
229.517293
 21
164.554270
 31
0.0
  0
ARC
  8
7
 10
235.267292
 20
162.407408
 30
0.0
 40
1.853135
 50
231.642265
 51
270.0
  0
ARC
  8
7
 10
231.817293
 20
167.366770
 30
0.0
 40
6.812498
 50
250.268330
 51
289.731580
  0
ARC
  8
7
 10
228.367294
 20
162.407407
 30
0.0
 40
1.853133
 50
270.0
 51
308.357670
  0
LINE
  8
7
 10
236.417293
 20
164.554270
 30
0.0
 11
236.817293
 21
164.554270
 31
0.0
  0
LINE
  8
7
 10
236.817293
 20
164.554270
 30
0.0
 11
236.817293
 21
165.554270
 31
0.0
  0
LINE
  8
7
 10
236.817293
 20
165.554270
 30
0.0
 11
226.817293
 21
165.554270
 31
0.0
  0
LINE
  8
7
 10
226.817293
 20
165.554270
 30
0.0
 11
226.817293
 21
164.554270
 31
0.0
  0
LINE
  8
7
 10
226.817293
 20
164.554270
 30
0.0
 11
227.217292
 21
164.554270
 31
0.0
  0
POINT
  8
7
 10
231.817293
 20
165.554270
 30
0.0
  0
ARC
  8
7
 10
231.817293
 20
207.954271
 30
0.0
 40
12.0
 50
73.808650
 51
106.191340
  0
POINT
  8
7
 10
231.817293
 20
214.554270
 30
0.0
  0
LINE
  8
7
 10
227.317293
 20
216.654270
 30
0.0
 11
236.317293
 21
216.654270
 31
0.0
  0
LINE
  8
7
 10
236.317293
 20
216.654270
 30
0.0
 11
236.317293
 21
217.941764
 31
0.0
  0
LINE
  8
7
 10
227.317293
 20
216.654270
 30
0.0
 11
227.317293
 21
217.941764
 31
0.0
  0
ARC
  8
7
 10
234.717293
 20
217.941764
 30
0.0
 40
1.599999
 50
0.0
 51
73.808590
  0
ARC
  8
7
 10
228.917292
 20
217.941764
 30
0.0
 40
1.599999
 50
106.191280
 51
180.0
  0
LINE
  8
7
 10
235.992291
 20
215.354271
 30
0.0
 11
235.992291
 21
216.654270
 31
0.0
  0
LINE
  8
7
 10
227.642295
 20
215.354271
 30
0.0
 11
227.642295
 21
216.654270
 31
0.0
  0
POINT
  8
7
 10
231.817293
 20
214.554270
 30
0.0
  0
LINE
  8
7
 10
231.817293
 20
214.554270
 30
0.0
 11
236.817293
 21
214.554270
 31
0.0
  0
LINE
  8
7
 10
236.817293
 20
215.354271
 30
0.0
 11
226.817293
 21
215.354271
 31
0.0
  0
LINE
  8
7
 10
226.817293
 20
214.554270
 30
0.0
 11
231.817293
 21
214.554270
 31
0.0
  0
LINE
  8
7
 10
236.817293
 20
215.354271
 30
0.0
 11
236.817293
 21
214.554270
 31
0.0
  0
LINE
  8
7
 10
226.817293
 20
214.554270
 30
0.0
 11
226.817293
 21
215.354271
 31
0.0
  0
LINE
  8
7
 10
231.817293
 20
216.654269
 30
0.0
 11
232.567845
 21
215.354271
 31
0.0
  0
LINE
  8
7
 10
231.066740
 20
216.654269
 30
0.0
 11
231.817293
 21
215.354271
 31
0.0
  0
LINE
  8
7
 10
216.317293
 20
206.554270
 30
0.0
 11
237.817293
 21
206.554270
 31
0.0
  0
LINE
  8
7
 10
209.817293
 20
214.554270
 30
0.0
 11
239.317293
 21
214.554270
 31
0.0
  0
POINT
  8
7
 10
245.817289
 20
175.548902
 30
0.0
  0
POINT
  8
7
 10
238.317286
 20
165.554280
 30
0.0
  0
ARC
  8
7
 10
201.017293
 20
226.554270
 30
0.0
 40
14.0
 50
343.927160
 51
376.072820
  0
POINT
  8
7
 10
208.817293
 20
226.554270
 30
0.0
  0
LINE
  8
7
 10
208.817293
 20
220.804271
 30
0.0
 11
208.817293
 21
232.304269
 31
0.0
  0
LINE
  8
7
 10
209.617293
 20
220.804271
 30
0.0
 11
209.617293
 21
232.304269
 31
0.0
  0
LINE
  8
7
 10
209.617293
 20
220.804271
 30
0.0
 11
208.817293
 21
220.804271
 31
0.0
  0
LINE
  8
7
 10
209.617293
 20
232.304269
 30
0.0
 11
208.817293
 21
232.304269
 31
0.0
  0
LINE
  8
7
 10
211.117293
 20
221.484271
 30
0.0
 11
209.617293
 21
221.484271
 31
0.0
  0
LINE
  8
7
 10
209.617293
 20
231.624270
 30
0.0
 11
211.117293
 21
231.624270
 31
0.0
  0
LINE
  8
7
 10
211.117293
 20
221.304271
 30
0.0
 11
211.117293
 21
231.804269
 31
0.0
  0
LINE
  8
7
 10
212.644309
 20
221.304271
 30
0.0
 11
211.117293
 21
221.304271
 31
0.0
  0
LINE
  8
7
 10
212.644309
 20
231.804269
 30
0.0
 11
211.117293
 21
231.804269
 31
0.0
  0
ARC
  8
7
 10
212.644309
 20
223.204271
 30
0.0
 40
1.900000
 50
270.0
 51
343.927110
  0
ARC
  8
7
 10
212.644309
 20
229.904270
 30
0.0
 40
1.900000
 50
16.072820
 51
90.0
  0
LINE
  8
7
 10
211.117292
 20
226.554270
 30
0.0
 11
209.617293
 21
225.688247
 31
0.0
  0
LINE
  8
7
 10
211.117292
 20
227.420293
 30
0.0
 11
209.617293
 21
226.554270
 31
0.0
  0
LINE
  8
7
 10
208.817293
 20
239.554270
 30
0.0
 11
208.817293
 21
215.554270
 31
0.0
  0
LINE
  8
7
 10
195.817293
 20
229.554270
 30
0.0
 11
205.817293
 21
229.554270
 31
0.0
  0
LINE
  8
7
 10
195.817293
 20
239.554270
 30
0.0
 11
192.817293
 21
239.554270
 31
0.0
  0
LINE
  8
7
 10
195.817293
 20
223.554270
 30
0.0
 11
205.817293
 21
223.554270
 31
0.0
  0
LINE
  8
7
 10
186.817293
 20
214.554270
 30
0.0
 11
186.817293
 21
208.054270
 31
0.0
  0
LINE
  8
7
 10
191.817293
 20
211.554270
 30
0.0
 11
186.817293
 21
211.554270
 31
0.0
  0
ARC
  8
7
 10
185.317293
 20
208.054270
 30
0.0
 40
1.500000
 50
270.000000
 51
360.000000
  0
ARC
  8
7
 10
191.817293
 20
215.554270
 30
0.0
 40
1.000000
 50
270.000000
 51
360.000000
  0
ARC
  8
7
 10
191.817293
 20
215.554270
 30
0.0
 40
4.000000
 50
270.000000
 51
360.000000
  0
LINE
  8
7
 62
     4
  6
DASHED
 10
193.817293
 20
211.154270
 30
0.0
 11
193.817293
 21
165.554270
 31
0.0
  0
LINE
  8
7
 10
162.317293
 20
214.554270
 30
0.0
 11
162.317293
 21
208.054270
 31
0.0
  0
ARC
  8
7
 10
163.817293
 20
208.054270
 30
0.0
 40
1.500000
 50
180.000000
 51
270.000000
  0
POINT
  8
7
 10
169.817293
 20
214.554270
 30
0.0
  0
LINE
  8
7
 10
174.317293
 20
216.654270
 30
0.0
 11
165.317293
 21
216.654270
 31
0.0
  0
LINE
  8
7
 10
165.317293
 20
216.654270
 30
0.0
 11
165.317293
 21
217.941764
 31
0.0
  0
LINE
  8
7
 10
174.317293
 20
216.654270
 30
0.0
 11
174.317293
 21
217.941764
 31
0.0
  0
LINE
  8
7
 10
165.642295
 20
215.354271
 30
0.0
 11
165.642295
 21
216.654270
 31
0.0
  0
LINE
  8
7
 10
173.992291
 20
215.354271
 30
0.0
 11
173.992291
 21
216.654270
 31
0.0
  0
POINT
  8
7
 10
169.817293
 20
214.554270
 30
0.0
  0
LINE
  8
7
 10
169.817293
 20
214.554270
 30
0.0
 11
164.817293
 21
214.554270
 31
0.0
  0
LINE
  8
7
 10
164.817293
 20
215.354271
 30
0.0
 11
174.817293
 21
215.354271
 31
0.0
  0
LINE
  8
7
 10
174.817293
 20
214.554270
 30
0.0
 11
169.817293
 21
214.554270
 31
0.0
  0
LINE
  8
7
 10
164.817293
 20
215.354271
 30
0.0
 11
164.817293
 21
214.554270
 31
0.0
  0
LINE
  8
7
 10
174.817293
 20
214.554270
 30
0.0
 11
174.817293
 21
215.354271
 31
0.0
  0
LINE
  8
7
 10
169.817293
 20
216.654269
 30
0.0
 11
169.066740
 21
215.354271
 31
0.0
  0
LINE
  8
7
 10
170.567845
 20
216.654269
 30
0.0
 11
169.817293
 21
215.354271
 31
0.0
  0
LINE
  8
7
 10
175.317293
 20
175.054270
 30
0.0
 11
175.317293
 21
165.554270
 31
0.0
  0
ARC
  8
7
 10
165.817293
 20
168.054270
 30
0.0
 40
2.500000
 50
180.000000
 51
270.000000
  0
LINE
  8
7
 10
163.317293
 20
175.054270
 30
0.0
 11
175.317293
 21
175.054270
 31
0.0
  0
LINE
  8
7
 10
165.217292
 20
164.554270
 30
0.0
 11
174.417293
 21
164.554270
 31
0.0
  0
LINE
  8
7
 10
174.417292
 20
164.554271
 30
0.0
 11
174.417292
 21
160.954271
 31
0.0
  0
LINE
  8
7
 10
174.417287
 20
160.954277
 30
0.0
 11
173.717288
 21
160.554277
 31
0.0
  0
LINE
  8
7
 10
173.717292
 20
160.554270
 30
0.0
 11
165.917294
 21
160.554270
 31
0.0
  0
LINE
  8
7
 10
165.917298
 20
160.554277
 30
0.0
 11
165.217298
 21
160.954277
 31
0.0
  0
LINE
  8
7
 10
165.217293
 20
160.954271
 30
0.0
 11
165.217293
 21
164.554269
 31
0.0
  0
LINE
  8
7
 10
167.517293
 20
160.954271
 30
0.0
 11
167.517293
 21
164.554270
 31
0.0
  0
LINE
  8
7
 10
172.117293
 20
160.954271
 30
0.0
 11
172.117293
 21
164.554270
 31
0.0
  0
LINE
  8
7
 10
165.217292
 20
164.554270
 30
0.0
 11
164.817293
 21
164.554270
 31
0.0
  0
LINE
  8
7
 10
164.817293
 20
164.554270
 30
0.0
 11
164.817293
 21
165.554270
 31
0.0
  0
LINE
  8
7
 10
164.817293
 20
165.554270
 30
0.0
 11
174.817293
 21
165.554270
 31
0.0
  0
LINE
  8
7
 10
174.817293
 20
165.554270
 30
0.0
 11
174.817293
 21
164.554270
 31
0.0
  0
LINE
  8
7
 10
174.817293
 20
164.554270
 30
0.0
 11
174.417293
 21
164.554270
 31
0.0
  0
POINT
  8
7
 10
169.817293
 20
165.554270
 30
0.0
  0
LINE
  8
7
 10
163.317293
 20
206.640060
 30
0.0
 11
163.317293
 21
168.054270
 31
0.0
  0
LINE
  8
7
 10
185.317293
 20
206.554270
 30
0.0
 11
163.817293
 21
206.554270
 31
0.0
  0
LINE
  8
7
 10
191.817293
 20
214.554270
 30
0.0
 11
162.317293
 21
214.554270
 31
0.0
  0
POINT
  8
7
 10
167.717310
 20
159.054266
 30
0.0
  0
POINT
  8
7
 10
165.817316
 20
165.554282
 30
0.0
  0
LINE
  8
7
 10
189.717293
 20
232.304269
 30
0.0
 11
189.717293
 21
220.804271
 31
0.0
  0
LINE
  8
7
 10
189.717293
 20
220.804270
 30
0.0
 11
185.217293
 21
220.804270
 31
0.0
  0
LINE
  8
7
 10
185.217284
 20
220.804266
 30
0.0
 11
184.717284
 21
221.654266
 31
0.0
  0
LINE
  8
7
 10
184.717296
 20
221.654272
 30
0.0
 11
184.717296
 21
231.454269
 31
0.0
  0
LINE
  8
7
 10
184.717284
 20
231.454275
 30
0.0
 11
185.217284
 21
232.304275
 31
0.0
  0
LINE
  8
7
 10
185.217293
 20
232.304270
 30
0.0
 11
189.717293
 21
232.304270
 31
0.0
  0
LINE
  8
7
 10
189.717293
 20
229.429270
 30
0.0
 11
185.217293
 21
229.429270
 31
0.0
  0
LINE
  8
7
 10
189.717293
 20
232.304270
 30
0.0
 11
189.717293
 21
232.654271
 31
0.0
  0
LINE
  8
7
 10
189.717293
 20
232.654271
 30
0.0
 11
191.217293
 21
232.654271
 31
0.0
  0
LINE
  8
7
 10
191.217292
 20
232.654270
 30
0.0
 11
191.217292
 21
220.454271
 31
0.0
  0
LINE
  8
7
 10
191.217293
 20
220.454270
 30
0.0
 11
189.717293
 21
220.454270
 31
0.0
  0
LINE
  8
7
 10
189.717293
 20
220.454270
 30
0.0
 11
189.717293
 21
220.804270
 31
0.0
  0
LINE
  8
7
 10
191.217292
 20
226.554270
 30
0.0
 11
189.717295
 21
227.054270
 31
0.0
  0
LINE
  8
7
 10
191.217294
 20
226.054270
 30
0.0
 11
189.717293
 21
226.554270
 31
0.0
  0
LINE
  8
7
 10
191.217293
 20
232.304270
 30
0.0
 11
192.817293
 21
232.304270
 31
0.0
  0
LINE
  8
7
 10
192.817293
 20
232.304269
 30
0.0
 11
192.817293
 21
220.804271
 31
0.0
  0
LINE
  8
7
 10
192.817293
 20
220.804270
 30
0.0
 11
191.217293
 21
220.804270
 31
0.0
  0
LINE
  8
7
 10
191.217293
 20
220.804270
 30
0.0
 11
191.217293
 21
220.454271
 31
0.0
  0
LINE
  8
7
 10
189.717293
 20
223.679271
 30
0.0
 11
185.217293
 21
223.679271
 31
0.0
  0
POINT
  8
7
 10
192.817293
 20
226.554270
 30
0.0
  0
LINE
  8
7
 10
192.817293
 20
239.554270
 30
0.0
 11
192.817293
 21
215.554270
 31
0.0
  0
LINE
  8
7
 10
195.817293
 20
239.554270
 30
0.0
 11
195.817293
 21
215.554270
 31
0.0
  0
LINE
  8
7
 10
205.817293
 20
239.554270
 30
0.0
 11
205.817293
 21
215.554270
 31
0.0
  0
POINT
  8
7
 10
192.817310
 20
239.554282
 30
0.0
  0
POINT
  8
7
 10
165.817316
 20
165.554280
 30
0.0
  0
LINE
  8
7
 10
186.817293
 20
211.154270
 30
0.0
 11
214.817293
 21
211.154270
 31
0.0
  0
LINE
  8
7
 10
165.817293
 20
165.554270
 30
0.0
 11
242.211459
 21
165.554270
 31
0.0
  0
LINE
  8
7
 10
205.817293
 20
239.554270
 30
0.0
 11
208.817293
 21
239.554270
 31
0.0
  0
ARC
  8
7
 10
209.817293
 20
215.554270
 30
0.0
 40
4.000000
 50
180.000000
 51
270.000000
  0
POINT
  8
7
 10
163.317316
 20
168.054280
 30
0.0
  0
POINT
  8
7
 10
238.317286
 20
185.054274
 30
0.0
  0
POINT
  8
7
 10
239.317286
 20
214.554284
 30
0.0
  0
POINT
  8
7
 10
205.817294
 20
254.406580
 30
0.0
  0
POINT
  8
7
 10
205.817294
 20
254.406580
 30
0.0
  0
POINT
  8
7
 10
195.817294
 20
254.406580
 30
0.0
  0
ARC
  8
7
 10
334.499652
 20
166.554270
 30
0.0
 40
1.000000
 50
180.000000
 51
270.000000
  0
LINE
  8
7
 10
345.730552
 20
168.554270
 30
0.0
 11
325.270732
 21
168.554270
 31
0.0
  0
LINE
  8
7
 10
434.310682
 20
165.554270
 30
0.0
 11
326.270732
 21
165.554270
 31
0.0
  0
ARC
  8
7
 10
334.335262
 20
184.554270
 30
0.0
 40
0.500000
 50
90.000000
 51
180.000000
  0
LINE
  8
7
 10
350.180292
 20
185.054270
 30
0.0
 11
326.270732
 21
185.054270
 31
0.0
  0
ARC
  8
7
 10
334.310682
 20
210.054270
 30
0.0
 40
1.500000
 50
90.000000
 51
180.000000
  0
LINE
  8
7
 10
334.144092
 20
178.421960
 30
0.0
 11
340.146062
 21
178.421960
 31
0.0
  0
LINE
  8
7
 10
334.149292
 20
169.568280
 30
0.0
 11
340.153952
 21
169.568280
 31
0.0
  0
LINE
  8
7
 10
334.144092
 20
178.421960
 30
0.0
 11
333.222872
 21
174.007590
 31
0.0
  0
LINE
  8
7
 10
334.149292
 20
169.568280
 30
0.0
 11
333.222872
 21
174.007590
 31
0.0
  0
LINE
  8
7
 10
343.410682
 20
164.554270
 30
0.0
 11
334.210681
 21
164.554270
 31
0.0
  0
LINE
  8
7
 10
334.210682
 20
164.554271
 30
0.0
 11
334.210682
 21
160.954271
 31
0.0
  0
LINE
  8
7
 10
334.210687
 20
160.954277
 30
0.0
 11
334.910687
 21
160.554277
 31
0.0
  0
LINE
  8
7
 10
334.910683
 20
160.554270
 30
0.0
 11
342.710681
 21
160.554270
 31
0.0
  0
LINE
  8
7
 10
342.710677
 20
160.554277
 30
0.0
 11
343.410676
 21
160.954277
 31
0.0
  0
LINE
  8
7
 10
343.410681
 20
160.954271
 30
0.0
 11
343.410681
 21
164.554269
 31
0.0
  0
LINE
  8
7
 10
341.110682
 20
160.954271
 30
0.0
 11
341.110682
 21
164.554270
 31
0.0
  0
LINE
  8
7
 10
336.510682
 20
160.954271
 30
0.0
 11
336.510682
 21
164.554270
 31
0.0
  0
ARC
  8
7
 10
342.260681
 20
162.407408
 30
0.0
 40
1.853135
 50
231.642265
 51
270.0
  0
ARC
  8
7
 10
338.810682
 20
167.366770
 30
0.0
 40
6.812498
 50
250.268330
 51
289.731580
  0
ARC
  8
7
 10
335.360683
 20
162.407407
 30
0.0
 40
1.853133
 50
270.0
 51
308.357670
  0
LINE
  8
7
 10
343.410682
 20
164.554270
 30
0.0
 11
343.810682
 21
164.554270
 31
0.0
  0
LINE
  8
7
 10
343.810682
 20
164.554270
 30
0.0
 11
343.810682
 21
165.554270
 31
0.0
  0
LINE
  8
7
 10
343.810682
 20
165.554270
 30
0.0
 11
333.810682
 21
165.554270
 31
0.0
  0
LINE
  8
7
 10
333.810682
 20
165.554270
 30
0.0
 11
333.810682
 21
164.554270
 31
0.0
  0
LINE
  8
7
 10
333.810682
 20
164.554270
 30
0.0
 11
334.210681
 21
164.554270
 31
0.0
  0
POINT
  8
7
 10
338.810682
 20
165.554270
 30
0.0
  0
ARC
  8
7
 10
338.810682
 20
207.954271
 30
0.0
 40
12.0
 50
73.808650
 51
106.191340
  0
POINT
  8
7
 10
338.810682
 20
214.554270
 30
0.0
  0
LINE
  8
7
 10
334.310682
 20
216.654270
 30
0.0
 11
343.310682
 21
216.654270
 31
0.0
  0
LINE
  8
7
 10
343.310682
 20
216.654270
 30
0.0
 11
343.310682
 21
217.941764
 31
0.0
  0
LINE
  8
7
 10
334.310682
 20
216.654270
 30
0.0
 11
334.310682
 21
217.941764
 31
0.0
  0
ARC
  8
7
 10
341.710682
 20
217.941764
 30
0.0
 40
1.599999
 50
0.0
 51
73.808590
  0
ARC
  8
7
 10
335.910681
 20
217.941764
 30
0.0
 40
1.599999
 50
106.191280
 51
180.0
  0
LINE
  8
7
 10
342.985680
 20
215.354271
 30
0.0
 11
342.985680
 21
216.654270
 31
0.0
  0
LINE
  8
7
 10
334.635684
 20
215.354271
 30
0.0
 11
334.635684
 21
216.654270
 31
0.0
  0
POINT
  8
7
 10
338.810682
 20
214.554270
 30
0.0
  0
LINE
  8
7
 10
338.810682
 20
214.554270
 30
0.0
 11
343.810682
 21
214.554270
 31
0.0
  0
LINE
  8
7
 10
343.810682
 20
215.354271
 30
0.0
 11
333.810682
 21
215.354271
 31
0.0
  0
LINE
  8
7
 10
333.810682
 20
214.554270
 30
0.0
 11
338.810682
 21
214.554270
 31
0.0
  0
LINE
  8
7
 10
343.810682
 20
215.354271
 30
0.0
 11
343.810682
 21
214.554270
 31
0.0
  0
LINE
  8
7
 10
333.810682
 20
214.554270
 30
0.0
 11
333.810682
 21
215.354271
 31
0.0
  0
LINE
  8
7
 10
338.810682
 20
216.654269
 30
0.0
 11
339.561234
 21
215.354271
 31
0.0
  0
LINE
  8
7
 10
338.060129
 20
216.654269
 30
0.0
 11
338.810682
 21
215.354271
 31
0.0
  0
LINE
  8
7
 10
333.610682
 20
211.554270
 30
0.0
 11
435.010682
 21
211.554270
 31
0.0
  0
LINE
  8
7
 10
435.310682
 20
214.554270
 30
0.0
 11
333.310682
 21
214.554270
 31
0.0
  0
POINT
  8
7
 10
329.310678
 20
210.554284
 30
0.0
  0
POINT
  8
7
 10
320.816658
 20
174.007582
 30
0.0
  0
POINT
  8
7
 10
439.310680
 20
210.554284
 30
0.0
  0
POINT
  8
7
 10
329.310682
 20
210.554284
 30
0.0
  0
ARC
  8
7
 10
432.710682
 20
217.941764
 30
0.0
 40
1.599999
 50
0.0
 51
73.808590
  0
ARC
  8
7
 10
429.810682
 20
207.954271
 30
0.0
 40
12.0
 50
73.808650
 51
106.191340
  0
ARC
  8
7
 10
429.810682
 20
207.954271
 30
0.0
 40
12.0
 50
73.808650
 51
106.191340
  0
ARC
  8
7
 10
426.910681
 20
217.941764
 30
0.0
 40
1.599999
 50
106.191280
 51
180.0
  0
ARC
  8
7
 10
172.717293
 20
217.941764
 30
0.0
 40
1.599999
 50
0.0
 51
73.808590
  0
ARC
  8
7
 10
169.817293
 20
207.954271
 30
0.0
 40
12.0
 50
73.808650
 51
106.191340
  0
ARC
  8
7
 10
169.817293
 20
207.954271
 30
0.0
 40
12.0
 50
73.808650
 51
106.191340
  0
ARC
  8
7
 10
166.917292
 20
217.941764
 30
0.0
 40
1.599999
 50
106.191280
 51
180.0
  0
ARC
  8
7
 10
187.033713
 20
230.866770
 30
0.0
 40
2.316416
 50
180.0
 51
218.357670
  0
ARC
  8
7
 10
193.232918
 20
226.554272
 30
0.0
 40
8.515623
 50
160.268330
 51
199.731580
  0
ARC
  8
7
 10
187.033715
 20
222.241773
 30
0.0
 40
2.316419
 50
141.642265
 51
180.0
  0
ARC
  8
7
 10
429.810682
 20
167.366770
 30
0.0
 40
6.812498
 50
250.268330
 51
289.731580
  0
ARC
  8
7
 10
426.360683
 20
162.407407
 30
0.0
 40
1.853133
 50
270.0
 51
308.357670
  0
ARC
  8
7
 10
433.260681
 20
162.407408
 30
0.0
 40
1.853135
 50
231.642265
 51
270.0
  0
POLYLINE
  8
0
 66
     1
 70
     0
  0
VERTEX
  8
0
 10
195.817293
 20
254.406590
 30
0.0
  0
VERTEX
  8
0
 10
195.978188
 20
254.607477
 30
0.0
  0
VERTEX
  8
0
 10
196.142002
 20
254.803585
 30
0.0
  0
VERTEX
  8
0
 10
196.311652
 20
254.990138
 30
0.0
  0
VERTEX
  8
0
 10
196.490057
 20
255.162358
 30
0.0
  0
VERTEX
  8
0
 10
196.680135
 20
255.315466
 30
0.0
  0
VERTEX
  8
0
 10
196.884805
 20
255.444686
 30
0.0
  0
VERTEX
  8
0
 10
197.106984
 20
255.545240
 30
0.0
  0
VERTEX
  8
0
 10
197.349591
 20
255.612349
 30
0.0
  0
VERTEX
  8
0
 10
197.615544
 20
255.641237
 30
0.0
  0
VERTEX
  8
0
 10
197.907762
 20
255.627125
 30
0.0
  0
VERTEX
  8
0
 10
198.229163
 20
255.565235
 30
0.0
  0
VERTEX
  8
0
 10
198.581308
 20
255.453142
 30
0.0
  0
VERTEX
  8
0
 10
198.960336
 20
255.297827
 30
0.0
  0
VERTEX
  8
0
 10
199.361027
 20
255.108622
 30
0.0
  0
VERTEX
  8
0
 10
199.778163
 20
254.894860
 30
0.0
  0
VERTEX
  8
0
 10
200.206525
 20
254.665875
 30
0.0
  0
VERTEX
  8
0
 10
200.640895
 20
254.430999
 30
0.0
  0
VERTEX
  8
0
 10
201.076052
 20
254.199565
 30
0.0
  0
VERTEX
  8
0
 10
201.506780
 20
253.980905
 30
0.0
  0
VERTEX
  8
0
 10
201.927858
 20
253.784353
 30
0.0
  0
VERTEX
  8
0
 10
202.334069
 20
253.619241
 30
0.0
  0
VERTEX
  8
0
 10
202.720193
 20
253.494902
 30
0.0
  0
VERTEX
  8
0
 10
203.082264
 20
253.418355
 30
0.0
  0
VERTEX
  8
0
 10
203.421331
 20
253.387358
 30
0.0
  0
VERTEX
  8
0
 10
203.739693
 20
253.397357
 30
0.0
  0
VERTEX
  8
0
 10
204.039652
 20
253.443797
 30
0.0
  0
VERTEX
  8
0
 10
204.323507
 20
253.522123
 30
0.0
  0
VERTEX
  8
0
 10
204.593559
 20
253.627779
 30
0.0
  0
VERTEX
  8
0
 10
204.852109
 20
253.756211
 30
0.0
  0
VERTEX
  8
0
 10
205.101457
 20
253.902863
 30
0.0
  0
VERTEX
  8
0
 10
205.343903
 20
254.063180
 30
0.0
  0
VERTEX
  8
0
 10
205.581748
 20
254.232608
 30
0.0
  0
VERTEX
  8
0
 10
205.817293
 20
254.406590
 30
0.0
  0
SEQEND
  8
0
  0
POLYLINE
  8
0
 66
     1
 70
     0
  0
VERTEX
  8
0
 10
195.817293
 20
143.091060
 30
0.0
  0
VERTEX
  8
0
 10
195.978188
 20
143.291947
 30
0.0
  0
VERTEX
  8
0
 10
196.142002
 20
143.488055
 30
0.0
  0
VERTEX
  8
0
 10
196.311652
 20
143.674608
 30
0.0
  0
VERTEX
  8
0
 10
196.490057
 20
143.846828
 30
0.0
  0
VERTEX
  8
0
 10
196.680135
 20
143.999936
 30
0.0
  0
VERTEX
  8
0
 10
196.884805
 20
144.129156
 30
0.0
  0
VERTEX
  8
0
 10
197.106984
 20
144.229710
 30
0.0
  0
VERTEX
  8
0
 10
197.349591
 20
144.296819
 30
0.0
  0
VERTEX
  8
0
 10
197.615544
 20
144.325707
 30
0.0
  0
VERTEX
  8
0
 10
197.907762
 20
144.311595
 30
0.0
  0
VERTEX
  8
0
 10
198.229163
 20
144.249705
 30
0.0
  0
VERTEX
  8
0
 10
198.581308
 20
144.137612
 30
0.0
  0
VERTEX
  8
0
 10
198.960336
 20
143.982297
 30
0.0
  0
VERTEX
  8
0
 10
199.361027
 20
143.793092
 30
0.0
  0
VERTEX
  8
0
 10
199.778163
 20
143.579330
 30
0.0
  0
VERTEX
  8
0
 10
200.206525
 20
143.350345
 30
0.0
  0
VERTEX
  8
0
 10
200.640895
 20
143.115469
 30
0.0
  0
VERTEX
  8
0
 10
201.076052
 20
142.884035
 30
0.0
  0
VERTEX
  8
0
 10
201.506780
 20
142.665375
 30
0.0
  0
VERTEX
  8
0
 10
201.927858
 20
142.468823
 30
0.0
  0
VERTEX
  8
0
 10
202.334069
 20
142.303711
 30
0.0
  0
VERTEX
  8
0
 10
202.720193
 20
142.179372
 30
0.0
  0
VERTEX
  8
0
 10
203.082264
 20
142.102825
 30
0.0
  0
VERTEX
  8
0
 10
203.421331
 20
142.071828
 30
0.0
  0
VERTEX
  8
0
 10
203.739693
 20
142.081827
 30
0.0
  0
VERTEX
  8
0
 10
204.039652
 20
142.128267
 30
0.0
  0
VERTEX
  8
0
 10
204.323507
 20
142.206593
 30
0.0
  0
VERTEX
  8
0
 10
204.593559
 20
142.312249
 30
0.0
  0
VERTEX
  8
0
 10
204.852109
 20
142.440681
 30
0.0
  0
VERTEX
  8
0
 10
205.101457
 20
142.587333
 30
0.0
  0
VERTEX
  8
0
 10
205.343903
 20
142.747650
 30
0.0
  0
VERTEX
  8
0
 10
205.581748
 20
142.917078
 30
0.0
  0
VERTEX
  8
0
 10
205.817293
 20
143.091060
 30
0.0
  0
SEQEND
  8
0
  0
LINE
  8
0
 10
205.817293
 20
256.406590
 30
0.0
 11
205.817293
 21
272.934094
 31
0.0
  0
LINE
  8
0
 10
239.317293
 20
216.554270
 30
0.0
 11
239.317293
 21
272.934094
 31
0.0
  0
LINE
  8
0
 10
222.567293
 20
270.934094
 30
0.0
 11
205.817293
 21
270.934094
 31
0.0
  0
LINE
  8
0
 10
207.817293
 20
270.398195
 30
0.0
 11
205.817293
 21
270.934094
 31
0.0
  0
LINE
  8
0
 10
205.817293
 20
270.934094
 30
0.0
 11
207.817293
 21
271.469992
 31
0.0
  0
LINE
  8
0
 10
222.567293
 20
270.934094
 30
0.0
 11
239.317293
 21
270.934094
 31
0.0
  0
LINE
  8
0
 10
237.317293
 20
271.469992
 30
0.0
 11
239.317293
 21
270.934094
 31
0.0
  0
LINE
  8
0
 10
239.317293
 20
270.934094
 30
0.0
 11
237.317293
 21
270.398195
 31
0.0
  0
TEXT
  8
0
 10
214.567293
 20
270.934094
 30
0.0
 40
5.0
  7
CSTEXT
  1
３３．５
 41
0.800000
 72
     5
 11
230.567293
 21
270.934094
 31
0.0
  0
LINE
  8
0
 10
205.817293
 20
256.406590
 30
0.0
 11
205.817293
 21
272.934094
 31
0.0
  0
LINE
  8
0
 10
195.817293
 20
256.406590
 30
0.0
 11
195.817293
 21
272.934094
 31
0.0
  0
LINE
  8
0
 10
200.817293
 20
270.934094
 30
0.0
 11
205.817293
 21
270.934094
 31
0.0
  0
LINE
  8
0
 10
205.817293
 20
270.934094
 30
0.0
 11
211.817293
 21
270.934094
 31
0.0
  0
LINE
  8
0
 10
207.817293
 20
271.469992
 30
0.0
 11
205.817293
 21
270.934094
 31
0.0
  0
LINE
  8
0
 10
205.817293
 20
270.934094
 30
0.0
 11
207.817293
 21
270.398195
 31
0.0
  0
LINE
  8
0
 10
200.817293
 20
270.934094
 30
0.0
 11
195.817293
 21
270.934094
 31
0.0
  0
LINE
  8
0
 10
195.817293
 20
270.934094
 30
0.0
 11
174.497293
 21
270.934094
 31
0.0
  0
LINE
  8
0
 10
193.817293
 20
270.398195
 30
0.0
 11
195.817293
 21
270.934094
 31
0.0
  0
LINE
  8
0
 10
195.817293
 20
270.934094
 30
0.0
 11
193.817293
 21
271.469992
 31
0.0
  0
TEXT
  8
0
 10
174.497293
 20
270.934094
 30
0.0
 40
5.0
  7
CSTEXT
  1
5～
 41
0.800000
 72
     5
 11
181.817293
 21
270.934094
 31
0.0
  0
TEXT
  8
0
 10
181.817293
 20
270.934094
 30
0.0
 40
5.0
  7
CSTEXT
  1
１０
 41
0.800000
 72
     5
 11
189.817293
 21
270.934094
 31
0.0
  0
LINE
  8
0
 10
238.317293
 20
183.054270
 30
0.0
 11
238.317293
 21
125.556716
 31
0.0
  0
LINE
  8
0
 10
163.317293
 20
166.054270
 30
0.0
 11
163.317293
 21
125.556716
 31
0.0
  0
LINE
  8
0
 10
200.817293
 20
127.556716
 30
0.0
 11
238.317293
 21
127.556716
 31
0.0
  0
LINE
  8
0
 10
236.317293
 20
128.092614
 30
0.0
 11
238.317293
 21
127.556716
 31
0.0
  0
LINE
  8
0
 10
238.317293
 20
127.556716
 30
0.0
 11
236.317293
 21
127.020817
 31
0.0
  0
LINE
  8
0
 10
200.817293
 20
127.556716
 30
0.0
 11
163.317293
 21
127.556716
 31
0.0
  0
LINE
  8
0
 10
165.317293
 20
127.020817
 30
0.0
 11
163.317293
 21
127.556716
 31
0.0
  0
LINE
  8
0
 10
163.317293
 20
127.556716
 30
0.0
 11
165.317293
 21
128.092614
 31
0.0
  0
TEXT
  8
0
 10
196.817293
 20
127.556716
 30
0.0
 40
5.0
  7
CSTEXT
  1
７５
 41
0.800000
 72
     5
 11
204.817293
 21
127.556716
 31
0.0
  0
TEXT
  8
3
 10
180.812911
 20
248.654010
 30
0.0
 40
5.0
  7
CSTEXT
  1
K
 41
0.800000
 72
     5
 11
184.132911
 21
248.654010
 31
0.0
  0
TEXT
  8
3
 10
180.812911
 20
145.894930
 30
0.0
 40
5.0
  7
CSTEXT
  1
L
 41
0.800000
 72
     5
 11
184.132911
 21
145.894930
 31
0.0
  0
TEXT
  8
3
 10
218.922622
 20
155.063050
 30
0.0
 40
5.0
  7
CSTEXT
  1
k
 41
0.800000
 72
     5
 11
222.242622
 21
155.063050
 31
0.0
  0
LINE
  8
7
 10
236.793508
 20
177.384090
 30
0.0
 11
236.985307
 21
177.900220
 31
0.0
  0
LINE
  8
7
 10
236.985307
 20
177.900220
 30
0.0
 11
237.204339
 21
178.332349
 31
0.0
  0
LINE
  8
7
 10
236.648557
 20
176.825640
 30
0.0
 11
236.793508
 21
177.384090
 31
0.0
  0
LINE
  8
7
 10
236.444622
 20
175.561390
 30
0.0
 11
236.648557
 21
176.825640
 31
0.0
  0
POLYLINE
  8
0
 66
     1
 70
     0
  0
VERTEX
  8
0
 10
240.495306
 20
155.852635
 30
0.0
  0
VERTEX
  8
0
 10
240.553051
 20
155.941084
 30
0.0
  0
VERTEX
  8
0
 10
240.610724
 20
156.030741
 30
0.0
  0
VERTEX
  8
0
 10
240.668255
 20
156.122816
 30
0.0
  0
VERTEX
  8
0
 10
240.725570
 20
156.218518
 30
0.0
  0
VERTEX
  8
0
 10
240.782600
 20
156.319056
 30
0.0
  0
VERTEX
  8
0
 10
240.839271
 20
156.425638
 30
0.0
  0
VERTEX
  8
0
 10
240.895512
 20
156.539473
 30
0.0
  0
VERTEX
  8
0
 10
240.951253
 20
156.661771
 30
0.0
  0
VERTEX
  8
0
 10
241.006420
 20
156.793739
 30
0.0
  0
VERTEX
  8
0
 10
241.060944
 20
156.936588
 30
0.0
  0
VERTEX
  8
0
 10
241.114751
 20
157.091526
 30
0.0
  0
VERTEX
  8
0
 10
241.167693
 20
157.259127
 30
0.0
  0
VERTEX
  8
0
 10
241.219315
 20
157.437427
 30
0.0
  0
VERTEX
  8
0
 10
241.269083
 20
157.623828
 30
0.0
  0
VERTEX
  8
0
 10
241.316464
 20
157.815731
 30
0.0
  0
VERTEX
  8
0
 10
241.360924
 20
158.010538
 30
0.0
  0
VERTEX
  8
0
 10
241.401931
 20
158.205650
 30
0.0
  0
VERTEX
  8
0
 10
241.438951
 20
158.398468
 30
0.0
  0
VERTEX
  8
0
 10
241.471452
 20
158.586395
 30
0.0
  0
VERTEX
  8
0
 10
241.498899
 20
158.766831
 30
0.0
  0
VERTEX
  8
0
 10
241.520759
 20
158.937178
 30
0.0
  0
VERTEX
  8
0
 10
241.536501
 20
159.094838
 30
0.0
  0
VERTEX
  8
0
 10
241.545689
 20
159.237413
 30
0.0
  0
VERTEX
  8
0
 10
241.548290
 20
159.363311
 30
0.0
  0
VERTEX
  8
0
 10
241.544370
 20
159.471144
 30
0.0
  0
VERTEX
  8
0
 10
241.533993
 20
159.559519
 30
0.0
  0
VERTEX
  8
0
 10
241.517226
 20
159.627048
 30
0.0
  0
VERTEX
  8
0
 10
241.494133
 20
159.672340
 30
0.0
  0
VERTEX
  8
0
 10
241.464781
 20
159.694004
 30
0.0
  0
VERTEX
  8
0
 10
241.429235
 20
159.690652
 30
0.0
  0
VERTEX
  8
0
 10
241.387560
 20
159.660891
 30
0.0
  0
VERTEX
  8
0
 10
241.339822
 20
159.603334
 30
0.0
  0
VERTEX
  8
0
 10
241.286087
 20
159.516588
 30
0.0
  0
VERTEX
  8
0
 10
241.226711
 20
159.400113
 30
0.0
  0
VERTEX
  8
0
 10
241.163218
 20
159.256763
 30
0.0
  0
VERTEX
  8
0
 10
241.097426
 20
159.090242
 30
0.0
  0
VERTEX
  8
0
 10
241.031149
 20
158.904253
 30
0.0
  0
VERTEX
  8
0
 10
240.966203
 20
158.702499
 30
0.0
  0
VERTEX
  8
0
 10
240.904405
 20
158.488684
 30
0.0
  0
VERTEX
  8
0
 10
240.847570
 20
158.266510
 30
0.0
  0
VERTEX
  8
0
 10
240.797514
 20
158.039681
 30
0.0
  0
VERTEX
  8
0
 10
240.756054
 20
157.811901
 30
0.0
  0
VERTEX
  8
0
 10
240.725004
 20
157.586872
 30
0.0
  0
VERTEX
  8
0
 10
240.706181
 20
157.368299
 30
0.0
  0
VERTEX
  8
0
 10
240.700896
 20
157.159446
 30
0.0
  0
VERTEX
  8
0
 10
240.708444
 20
156.961824
 30
0.0
  0
VERTEX
  8
0
 10
240.727616
 20
156.776508
 30
0.0
  0
VERTEX
  8
0
 10
240.757202
 20
156.604571
 30
0.0
  0
VERTEX
  8
0
 10
240.795993
 20
156.447088
 30
0.0
  0
VERTEX
  8
0
 10
240.842778
 20
156.305130
 30
0.0
  0
VERTEX
  8
0
 10
240.896348
 20
156.179772
 30
0.0
  0
VERTEX
  8
0
 10
240.955494
 20
156.072089
 30
0.0
  0
VERTEX
  8
0
 10
241.019006
 20
155.983152
 30
0.0
  0
VERTEX
  8
0
 10
241.085674
 20
155.914036
 30
0.0
  0
VERTEX
  8
0
 10
241.154290
 20
155.865815
 30
0.0
  0
VERTEX
  8
0
 10
241.223833
 20
155.839050
 30
0.0
  0
VERTEX
  8
0
 10
241.294046
 20
155.832256
 30
0.0
  0
VERTEX
  8
0
 10
241.364863
 20
155.843436
 30
0.0
  0
VERTEX
  8
0
 10
241.436216
 20
155.870593
 30
0.0
  0
VERTEX
  8
0
 10
241.508038
 20
155.911729
 30
0.0
  0
VERTEX
  8
0
 10
241.580263
 20
155.964848
 30
0.0
  0
VERTEX
  8
0
 10
241.652822
 20
156.027953
 30
0.0
  0
VERTEX
  8
0
 10
241.725650
 20
156.099045
 30
0.0
  0
VERTEX
  8
0
 10
241.798678
 20
156.176130
 30
0.0
  0
VERTEX
  8
0
 10
241.871841
 20
156.257208
 30
0.0
  0
VERTEX
  8
0
 10
241.945071
 20
156.340284
 30
0.0
  0
SEQEND
  8
0
  0
LINE
  8
0
 10
239.317293
 20
211.304270
 30
0.0
 11
248.927672
 21
226.341320
 31
0.0
  0
LINE
  8
0
 10
240.067885
 20
213.672848
 30
0.0
 11
239.317293
 21
211.304270
 31
0.0
  0
LINE
  8
0
 10
239.317293
 20
211.304270
 30
0.0
 11
241.151614
 21
212.980223
 31
0.0
  0
TEXT
  8
0
 10
252.927672
 20
226.341320
 30
0.0
 40
5.0
  7
CSTEXT
  1
ブスバー取付金具
 41
0.800000
 72
     5
 11
284.927672
 21
226.341320
 31
0.0
  0
LINE
  8
0
 10
248.927672
 20
226.341320
 30
0.0
 11
284.927672
 21
226.341320
 31
0.0
  0
POLYLINE
  8
0
 66
     1
 70
     0
  0
VERTEX
  8
0
 10
359.310682
 20
250.617950
 30
0.0
  0
VERTEX
  8
0
 10
360.544582
 20
251.244726
 30
0.0
  0
VERTEX
  8
0
 10
361.788990
 20
251.857430
 30
0.0
  0
VERTEX
  8
0
 10
363.054414
 20
252.441987
 30
0.0
  0
VERTEX
  8
0
 10
364.351360
 20
252.984325
 30
0.0
  0
VERTEX
  8
0
 10
365.690338
 20
253.470371
 30
0.0
  0
VERTEX
  8
0
 10
367.081854
 20
253.886053
 30
0.0
  0
VERTEX
  8
0
 10
368.536415
 20
254.217297
 30
0.0
  0
VERTEX
  8
0
 10
370.064531
 20
254.450030
 30
0.0
  0
VERTEX
  8
0
 10
371.676708
 20
254.570179
 30
0.0
  0
VERTEX
  8
0
 10
373.383455
 20
254.563672
 30
0.0
  0
VERTEX
  8
0
 10
375.195278
 20
254.416435
 30
0.0
  0
VERTEX
  8
0
 10
377.116850
 20
254.121178
 30
0.0
  0
VERTEX
  8
0
 10
379.129501
 20
253.697739
 30
0.0
  0
VERTEX
  8
0
 10
381.208723
 20
253.172739
 30
0.0
  0
VERTEX
  8
0
 10
383.330010
 20
252.572799
 30
0.0
  0
VERTEX
  8
0
 10
385.468856
 20
251.924540
 30
0.0
  0
VERTEX
  8
0
 10
387.600754
 20
251.254583
 30
0.0
  0
VERTEX
  8
0
 10
389.701197
 20
250.589548
 30
0.0
  0
VERTEX
  8
0
 10
391.745680
 20
249.956056
 30
0.0
  0
VERTEX
  8
0
 10
393.709696
 20
249.380728
 30
0.0
  0
VERTEX
  8
0
 10
395.568738
 20
248.890185
 30
0.0
  0
VERTEX
  8
0
 10
397.298299
 20
248.511048
 30
0.0
  0
VERTEX
  8
0
 10
398.880292
 20
248.263409
 30
0.0
  0
VERTEX
  8
0
 10
400.322296
 20
248.141249
 30
0.0
  0
VERTEX
  8
0
 10
401.638312
 20
248.132020
 30
0.0
  0
VERTEX
  8
0
 10
402.842337
 20
248.223173
 30
0.0
  0
VERTEX
  8
0
 10
403.948370
 20
248.402162
 30
0.0
  0
VERTEX
  8
0
 10
404.970411
 20
248.656438
 30
0.0
  0
VERTEX
  8
0
 10
405.922458
 20
248.973453
 30
0.0
  0
VERTEX
  8
0
 10
406.818510
 20
249.340660
 30
0.0
  0
VERTEX
  8
0
 10
407.672565
 20
249.745510
 30
0.0
  0
VERTEX
  8
0
 10
408.498623
 20
250.175456
 30
0.0
  0
VERTEX
  8
0
 10
409.310682
 20
250.617950
 30
0.0
  0
SEQEND
  8
0
  0
POLYLINE
  8
0
 66
     1
 70
     0
  0
VERTEX
  8
0
 10
359.310682
 20
147.256490
 30
0.0
  0
VERTEX
  8
0
 10
360.544582
 20
147.883266
 30
0.0
  0
VERTEX
  8
0
 10
361.788990
 20
148.495970
 30
0.0
  0
VERTEX
  8
0
 10
363.054414
 20
149.080527
 30
0.0
  0
VERTEX
  8
0
 10
364.351360
 20
149.622865
 30
0.0
  0
VERTEX
  8
0
 10
365.690338
 20
150.108911
 30
0.0
  0
VERTEX
  8
0
 10
367.081854
 20
150.524593
 30
0.0
  0
VERTEX
  8
0
 10
368.536415
 20
150.855837
 30
0.0
  0
VERTEX
  8
0
 10
370.064531
 20
151.088570
 30
0.0
  0
VERTEX
  8
0
 10
371.676708
 20
151.208719
 30
0.0
  0
VERTEX
  8
0
 10
373.383455
 20
151.202212
 30
0.0
  0
VERTEX
  8
0
 10
375.195278
 20
151.054975
 30
0.0
  0
VERTEX
  8
0
 10
377.116850
 20
150.759718
 30
0.0
  0
VERTEX
  8
0
 10
379.129501
 20
150.336279
 30
0.0
  0
VERTEX
  8
0
 10
381.208723
 20
149.811279
 30
0.0
  0
VERTEX
  8
0
 10
383.330010
 20
149.211339
 30
0.0
  0
VERTEX
  8
0
 10
385.468856
 20
148.563080
 30
0.0
  0
VERTEX
  8
0
 10
387.600754
 20
147.893123
 30
0.0
  0
VERTEX
  8
0
 10
389.701197
 20
147.228088
 30
0.0
  0
VERTEX
  8
0
 10
391.745680
 20
146.594596
 30
0.0
  0
VERTEX
  8
0
 10
393.709696
 20
146.019268
 30
0.0
  0
VERTEX
  8
0
 10
395.568738
 20
145.528725
 30
0.0
  0
VERTEX
  8
0
 10
397.298299
 20
145.149588
 30
0.0
  0
VERTEX
  8
0
 10
398.880292
 20
144.901949
 30
0.0
  0
VERTEX
  8
0
 10
400.322296
 20
144.779789
 30
0.0
  0
VERTEX
  8
0
 10
401.638312
 20
144.770560
 30
0.0
  0
VERTEX
  8
0
 10
402.842337
 20
144.861713
 30
0.0
  0
VERTEX
  8
0
 10
403.948370
 20
145.040702
 30
0.0
  0
VERTEX
  8
0
 10
404.970411
 20
145.294978
 30
0.0
  0
VERTEX
  8
0
 10
405.922458
 20
145.611993
 30
0.0
  0
VERTEX
  8
0
 10
406.818510
 20
145.979200
 30
0.0
  0
VERTEX
  8
0
 10
407.672565
 20
146.384050
 30
0.0
  0
VERTEX
  8
0
 10
408.498623
 20
146.813996
 30
0.0
  0
VERTEX
  8
0
 10
409.310682
 20
147.256490
 30
0.0
  0
SEQEND
  8
0
  0
CIRCLE
  8
7
 10
354.810683
 20
226.554270
 30
0.0
 40
5.249999
  0
CIRCLE
  8
7
 10
354.810683
 20
226.554270
 30
0.0
 40
5.249999
  0
CIRCLE
  8
7
 10
354.810683
 20
226.554270
 30
0.0
 40
5.749999
  0
LINE
  8
4
 10
355.410683
 20
225.204270
 30
0.0
 11
355.410683
 21
223.554270
 31
0.0
  0
ARC
  8
4
 10
356.160683
 20
225.204270
 30
0.0
 40
0.750000
 50
90.0
 51
180.0
  0
LINE
  8
4
 10
357.810683
 20
225.954270
 30
0.0
 11
356.160683
 21
225.954270
 31
0.0
  0
LINE
  8
4
 10
357.810683
 20
227.154270
 30
0.0
 11
357.810683
 21
225.954270
 31
0.0
  0
LINE
  8
4
 10
357.810683
 20
227.154270
 30
0.0
 11
356.160683
 21
227.154270
 31
0.0
  0
ARC
  8
4
 10
356.160683
 20
227.904270
 30
0.0
 40
0.750000
 50
180.0
 51
270.0
  0
LINE
  8
4
 10
355.410683
 20
227.904270
 30
0.0
 11
355.410683
 21
229.554270
 31
0.0
  0
LINE
  8
4
 10
355.410683
 20
229.554270
 30
0.0
 11
354.210683
 21
229.554270
 31
0.0
  0
LINE
  8
4
 10
354.210683
 20
227.904270
 30
0.0
 11
354.210683
 21
229.554270
 31
0.0
  0
ARC
  8
4
 10
353.460683
 20
227.904270
 30
0.0
 40
0.750000
 50
270.0
 51
360.0
  0
LINE
  8
4
 10
353.460683
 20
227.154270
 30
0.0
 11
351.810683
 21
227.154270
 31
0.0
  0
LINE
  8
4
 10
351.810683
 20
227.154270
 30
0.0
 11
351.810683
 21
225.954270
 31
0.0
  0
LINE
  8
4
 10
353.460683
 20
225.954270
 30
0.0
 11
351.810683
 21
225.954270
 31
0.0
  0
ARC
  8
4
 10
353.460683
 20
225.204270
 30
0.0
 40
0.750000
 50
0.0
 51
90.0
  0
LINE
  8
4
 10
354.210683
 20
225.204270
 30
0.0
 11
354.210683
 21
223.554270
 31
0.0
  0
LINE
  8
4
 10
355.410683
 20
223.554270
 30
0.0
 11
354.210683
 21
223.554270
 31
0.0
  0
LINE
  8
4
 10
414.410682
 20
225.204270
 30
0.0
 11
414.410682
 21
223.554270
 31
0.0
  0
ARC
  8
4
 10
415.160682
 20
225.204270
 30
0.0
 40
0.750000
 50
90.0
 51
180.0
  0
LINE
  8
4
 10
416.810682
 20
225.954270
 30
0.0
 11
415.160682
 21
225.954270
 31
0.0
  0
LINE
  8
4
 10
416.810682
 20
227.154270
 30
0.0
 11
416.810682
 21
225.954270
 31
0.0
  0
LINE
  8
4
 10
416.810682
 20
227.154270
 30
0.0
 11
415.160682
 21
227.154270
 31
0.0
  0
ARC
  8
4
 10
415.160682
 20
227.904270
 30
0.0
 40
0.750000
 50
180.0
 51
270.0
  0
LINE
  8
4
 10
414.410682
 20
227.904270
 30
0.0
 11
414.410682
 21
229.554270
 31
0.0
  0
LINE
  8
4
 10
414.410682
 20
229.554270
 30
0.0
 11
413.210682
 21
229.554270
 31
0.0
  0
LINE
  8
4
 10
413.210682
 20
227.904270
 30
0.0
 11
413.210682
 21
229.554270
 31
0.0
  0
ARC
  8
4
 10
412.460682
 20
227.904270
 30
0.0
 40
0.750000
 50
270.0
 51
360.0
  0
LINE
  8
4
 10
412.460682
 20
227.154270
 30
0.0
 11
410.810682
 21
227.154270
 31
0.0
  0
LINE
  8
4
 10
410.810682
 20
227.154270
 30
0.0
 11
410.810682
 21
225.954270
 31
0.0
  0
LINE
  8
4
 10
412.460682
 20
225.954270
 30
0.0
 11
410.810682
 21
225.954270
 31
0.0
  0
ARC
  8
4
 10
412.460682
 20
225.204270
 30
0.0
 40
0.750000
 50
0.0
 51
90.0
  0
LINE
  8
4
 10
413.210682
 20
225.204270
 30
0.0
 11
413.210682
 21
223.554270
 31
0.0
  0
LINE
  8
4
 10
414.410682
 20
223.554270
 30
0.0
 11
413.210682
 21
223.554270
 31
0.0
  0
LINE
  8
0
 10
339.310682
 20
236.554270
 30
0.0
 11
339.310682
 21
264.318001
 31
0.0
  0
LINE
  8
0
 10
429.310682
 20
236.554270
 30
0.0
 11
429.310682
 21
264.318001
 31
0.0
  0
LINE
  8
0
 10
384.310682
 20
262.318001
 30
0.0
 11
339.310682
 21
262.318001
 31
0.0
  0
LINE
  8
0
 10
341.310682
 20
261.782102
 30
0.0
 11
339.310682
 21
262.318001
 31
0.0
  0
LINE
  8
0
 10
339.310682
 20
262.318001
 30
0.0
 11
341.310682
 21
262.853899
 31
0.0
  0
LINE
  8
0
 10
384.310682
 20
262.318001
 30
0.0
 11
429.310682
 21
262.318001
 31
0.0
  0
LINE
  8
0
 10
427.310682
 20
262.853899
 30
0.0
 11
429.310682
 21
262.318001
 31
0.0
  0
LINE
  8
0
 10
429.310682
 20
262.318001
 30
0.0
 11
427.310682
 21
261.782102
 31
0.0
  0
TEXT
  8
0
 10
380.310682
 20
262.318001
 30
0.0
 40
5.0
  7
CSTEXT
  1
９０
 41
0.800000
 72
     5
 11
388.310682
 21
262.318001
 31
0.0
  0
LINE
  8
0
 10
329.310682
 20
212.554270
 30
0.0
 11
329.310682
 21
272.934094
 31
0.0
  0
LINE
  8
0
 10
439.310682
 20
212.554270
 30
0.0
 11
439.310682
 21
272.934094
 31
0.0
  0
LINE
  8
0
 10
384.310682
 20
270.934094
 30
0.0
 11
329.310682
 21
270.934094
 31
0.0
  0
LINE
  8
0
 10
331.310682
 20
270.398195
 30
0.0
 11
329.310682
 21
270.934094
 31
0.0
  0
LINE
  8
0
 10
329.310682
 20
270.934094
 30
0.0
 11
331.310682
 21
271.469992
 31
0.0
  0
LINE
  8
0
 10
384.310682
 20
270.934094
 30
0.0
 11
439.310682
 21
270.934094
 31
0.0
  0
LINE
  8
0
 10
437.310682
 20
271.469992
 30
0.0
 11
439.310682
 21
270.934094
 31
0.0
  0
LINE
  8
0
 10
439.310682
 20
270.934094
 30
0.0
 11
437.310682
 21
270.398195
 31
0.0
  0
TEXT
  8
0
 10
378.310682
 20
270.934094
 30
0.0
 40
5.0
  7
CSTEXT
  1
１１０
 41
0.800000
 72
     5
 11
390.310682
 21
270.934094
 31
0.0
  0
LINE
  8
0
 10
436.310682
 20
165.554270
 30
0.0
 11
450.969386
 21
165.554270
 31
0.0
  0
LINE
  8
0
 10
436.310682
 20
211.554270
 30
0.0
 11
450.969386
 21
211.554270
 31
0.0
  0
LINE
  8
0
 10
448.969386
 20
188.554270
 30
0.0
 11
448.969386
 21
165.554270
 31
0.0
  0
LINE
  8
0
 10
449.505285
 20
167.554270
 30
0.0
 11
448.969386
 21
165.554270
 31
0.0
  0
LINE
  8
0
 10
448.969386
 20
165.554270
 30
0.0
 11
448.433488
 21
167.554270
 31
0.0
  0
LINE
  8
0
 10
448.969386
 20
188.554270
 30
0.0
 11
448.969386
 21
211.554270
 31
0.0
  0
LINE
  8
0
 10
448.433488
 20
209.554270
 30
0.0
 11
448.969386
 21
211.554270
 31
0.0
  0
LINE
  8
0
 10
448.969386
 20
211.554270
 30
0.0
 11
449.505285
 21
209.554270
 31
0.0
  0
TEXT
  8
0
 10
448.969386
 20
184.554270
 30
0.0
 40
5.0
  7
CSTEXT
  1
４６
 50
90.0
 41
0.800000
 72
     5
 11
448.969386
 21
192.554270
 31
0.0
  0
LINE
  8
0
 10
245.817293
 20
173.548920
 30
0.0
 11
245.817293
 21
125.556716
 31
0.0
  0
LINE
  8
0
 10
238.317293
 20
183.054270
 30
0.0
 11
238.317293
 21
125.556716
 31
0.0
  0
LINE
  8
0
 10
242.067293
 20
127.556716
 30
0.0
 11
245.817293
 21
127.556716
 31
0.0
  0
LINE
  8
0
 10
245.817293
 20
127.556716
 30
0.0
 11
263.817293
 21
127.556716
 31
0.0
  0
LINE
  8
0
 10
247.817293
 20
128.092614
 30
0.0
 11
245.817293
 21
127.556716
 31
0.0
  0
LINE
  8
0
 10
245.817293
 20
127.556716
 30
0.0
 11
247.817293
 21
127.020817
 31
0.0
  0
LINE
  8
0
 10
242.067293
 20
127.556716
 30
0.0
 11
238.317293
 21
127.556716
 31
0.0
  0
LINE
  8
0
 10
238.317293
 20
127.556716
 30
0.0
 11
232.317293
 21
127.556716
 31
0.0
  0
LINE
  8
0
 10
236.317293
 20
127.020817
 30
0.0
 11
238.317293
 21
127.556716
 31
0.0
  0
LINE
  8
0
 10
238.317293
 20
127.556716
 30
0.0
 11
236.317293
 21
128.092614
 31
0.0
  0
TEXT
  8
0
 10
251.817293
 20
127.556716
 30
0.0
 40
5.0
  7
CSTEXT
  1
７．５
 41
0.800000
 72
     5
 11
263.817293
 21
127.556716
 31
0.0
  0
LINE
  8
0
 10
320.816652
 20
176.007590
 30
0.0
 11
320.816652
 21
272.934094
 31
0.0
  0
LINE
  8
0
 10
329.310682
 20
212.554270
 30
0.0
 11
329.310682
 21
272.934094
 31
0.0
  0
LINE
  8
0
 10
325.063667
 20
270.934094
 30
0.0
 11
320.816652
 21
270.934094
 31
0.0
  0
LINE
  8
0
 10
320.816652
 20
270.934094
 30
0.0
 11
302.816652
 21
270.934094
 31
0.0
  0
LINE
  8
0
 10
318.816652
 20
270.398195
 30
0.0
 11
320.816652
 21
270.934094
 31
0.0
  0
LINE
  8
0
 10
320.816652
 20
270.934094
 30
0.0
 11
318.816652
 21
271.469992
 31
0.0
  0
LINE
  8
0
 10
325.063667
 20
270.934094
 30
0.0
 11
329.310682
 21
270.934094
 31
0.0
  0
LINE
  8
0
 10
329.310682
 20
270.934094
 30
0.0
 11
335.310682
 21
270.934094
 31
0.0
  0
LINE
  8
0
 10
331.310682
 20
271.469992
 30
0.0
 11
329.310682
 21
270.934094
 31
0.0
  0
LINE
  8
0
 10
329.310682
 20
270.934094
 30
0.0
 11
331.310682
 21
270.398195
 31
0.0
  0
TEXT
  8
0
 10
302.816652
 20
270.934094
 30
0.0
 40
5.0
  7
CSTEXT
  1
８．５
 41
0.800000
 72
     5
 11
314.816652
 21
270.934094
 31
0.0
  0
LINE
  8
0
 10
387.310682
 20
175.054270
 30
0.0
 11
425.527434
 21
139.666324
 31
0.0
  0
LINE
  8
0
 10
389.508586
 20
173.895493
 30
0.0
 11
387.310682
 21
175.054270
 31
0.0
  0
LINE
  8
0
 10
387.310682
 20
175.054270
 30
0.0
 11
388.634734
 21
172.951787
 31
0.0
  0
TEXT
  8
0
 10
429.527434
 20
139.666324
 30
0.0
 40
5.0
  7
CSTEXT
  1
検定封印穴φ2
 41
0.800000
 72
     5
 11
456.847434
 21
139.666324
 31
0.0
  0
LINE
  8
0
 10
425.527434
 20
139.666324
 30
0.0
 11
456.847434
 21
139.666324
 31
0.0
  0
LINE
  8
0
 10
359.310682
 20
145.256490
 30
0.0
 11
359.310682
 21
125.556716
 31
0.0
  0
LINE
  8
0
 10
409.310682
 20
145.256490
 30
0.0
 11
409.310682
 21
125.556716
 31
0.0
  0
LINE
  8
0
 10
384.310682
 20
127.556716
 30
0.0
 11
359.310682
 21
127.556716
 31
0.0
  0
LINE
  8
0
 10
361.310682
 20
127.020817
 30
0.0
 11
359.310682
 21
127.556716
 31
0.0
  0
LINE
  8
0
 10
359.310682
 20
127.556716
 30
0.0
 11
361.310682
 21
128.092614
 31
0.0
  0
LINE
  8
0
 10
384.310682
 20
127.556716
 30
0.0
 11
409.310682
 21
127.556716
 31
0.0
  0
LINE
  8
0
 10
407.310682
 20
128.092614
 30
0.0
 11
409.310682
 21
127.556716
 31
0.0
  0
LINE
  8
0
 10
409.310682
 20
127.556716
 30
0.0
 11
407.310682
 21
127.020817
 31
0.0
  0
TEXT
  8
0
 10
373.670682
 20
127.556716
 30
0.0
 40
5.0
  7
CSTEXT
  1
MAX.
 41
0.800000
 72
     5
 11
386.950682
 21
127.556716
 31
0.0
  0
TEXT
  8
0
 10
386.950682
 20
127.556716
 30
0.0
 40
5.0
  7
CSTEXT
  1
５０
 41
0.800000
 72
     5
 11
394.950682
 21
127.556716
 31
0.0
  0
LINE
  8
0
 10
162.817293
 20
165.554270
 30
0.0
 11
150.268033
 21
165.554270
 31
0.0
  0
LINE
  8
0
 10
190.817293
 20
239.554270
 30
0.0
 11
150.268033
 21
239.554270
 31
0.0
  0
LINE
  8
0
 10
152.268033
 20
202.554270
 30
0.0
 11
152.268033
 21
165.554270
 31
0.0
  0
LINE
  8
0
 10
152.803932
 20
167.554270
 30
0.0
 11
152.268033
 21
165.554270
 31
0.0
  0
LINE
  8
0
 10
152.268033
 20
165.554270
 30
0.0
 11
151.732135
 21
167.554270
 31
0.0
  0
LINE
  8
0
 10
152.268033
 20
202.554270
 30
0.0
 11
152.268033
 21
239.554270
 31
0.0
  0
LINE
  8
0
 10
151.732135
 20
237.554270
 30
0.0
 11
152.268033
 21
239.554270
 31
0.0
  0
LINE
  8
0
 10
152.268033
 20
239.554270
 30
0.0
 11
152.803932
 21
237.554270
 31
0.0
  0
TEXT
  8
0
 10
152.268033
 20
198.554270
 30
0.0
 40
5.0
  7
CSTEXT
  1
７４
 50
90.0
 41
0.800000
 72
     5
 11
152.268033
 21
206.554270
 31
0.0
  0
LINE
  8
0
 10
162.817293
 20
165.554270
 30
0.0
 11
150.268033
 21
165.554270
 31
0.0
  0
LINE
  8
0
 10
165.317293
 20
159.054270
 30
0.0
 11
150.268033
 21
159.054270
 31
0.0
  0
LINE
  8
0
 10
152.268033
 20
162.304270
 30
0.0
 11
152.268033
 21
165.554270
 31
0.0
  0
LINE
  8
0
 10
152.268033
 20
165.554270
 30
0.0
 11
152.268033
 21
171.554270
 31
0.0
  0
LINE
  8
0
 10
151.732135
 20
167.554270
 30
0.0
 11
152.268033
 21
165.554270
 31
0.0
  0
LINE
  8
0
 10
152.268033
 20
165.554270
 30
0.0
 11
152.803932
 21
167.554270
 31
0.0
  0
LINE
  8
0
 10
152.268033
 20
162.304270
 30
0.0
 11
152.268033
 21
159.054270
 31
0.0
  0
LINE
  8
0
 10
152.268033
 20
159.054270
 30
0.0
 11
152.268033
 21
141.054270
 31
0.0
  0
LINE
  8
0
 10
152.803932
 20
157.054270
 30
0.0
 11
152.268033
 21
159.054270
 31
0.0
  0
LINE
  8
0
 10
152.268033
 20
159.054270
 30
0.0
 11
151.732135
 21
157.054270
 31
0.0
  0
TEXT
  8
0
 10
152.268033
 20
141.054270
 30
0.0
 40
5.0
  7
CSTEXT
  1
６．５
 50
90.0
 41
0.800000
 72
     5
 11
152.268033
 21
153.054270
 31
0.0
  0
LINE
  8
0
 10
244.890867
 20
179.988230
 30
0.0
 11
251.957754
 21
188.811845
 31
0.0
  0
LINE
  8
0
 10
245.889232
 20
182.263492
 30
0.0
 11
244.890867
 21
179.988230
 31
0.0
  0
LINE
  8
0
 10
244.890867
 20
179.988230
 30
0.0
 11
246.893107
 21
181.459482
 31
0.0
  0
TEXT
  8
0
 10
255.957754
 20
188.811845
 30
0.0
 40
5.0
  7
CSTEXT
  1
M5ネジ
 41
0.800000
 72
     5
 11
270.597754
 21
188.811845
 31
0.0
  0
LINE
  8
0
 10
251.957754
 20
188.811845
 30
0.0
 11
270.597754
 21
188.811845
 31
0.0
  0
LINE
  8
0
 10
205.766575
 20
247.275480
 30
0.0
 11
249.081968
 21
263.406730
 31
0.0
  0
LINE
  8
0
 10
207.791239
 20
248.715719
 30
0.0
 11
205.766575
 21
247.275480
 31
0.0
  0
LINE
  8
0
 10
205.766575
 20
247.275480
 30
0.0
 11
208.240104
 21
247.510431
 31
0.0
  0
TEXT
  8
0
 10
253.081968
 20
263.406730
 30
0.0
 40
5.0
  7
CSTEXT
  1
ブスバー
 41
0.800000
 72
     5
 11
269.081968
 21
263.406730
 31
0.0
  0
LINE
  8
0
 10
249.081968
 20
263.406730
 30
0.0
 11
269.081968
 21
263.406730
 31
0.0
  0
TEXT
  8
0
 10
855.618524
 20
392.536595
 30
0.0
 40
10.0
  7
CSTEXT
  1
外形寸法図
 41
0.800000
 72
     5
 11
927.618524
 21
392.536595
 31
0.0
  0
LINE
  8
0
 10
855.618524
 20
391.536595
 30
0.0
 11
927.618524
 21
391.536595
 31
0.0
  0
TEXT
  8
0
 10
777.118524
 20
377.536595
 30
0.0
 40
10.0
  7
CSTEXT
  1
１１００Ｖ以下低圧変成器ＣＴシリーズ　ＣＴ－１５ＬＭＳ
 41
0.800000
 72
     5
 11
1006.118524
 21
377.536595
 31
0.0
  0
LINE
  8
0
 10
777.118524
 20
376.536595
 30
0.0
 11
1006.118524
 21
376.536595
 31
0.0
  0
LINE
  8
0
 62
     7
 10
605.0
 20
5.0
 30
0.0
 11
605.0
 21
410.0
 31
0.0
  0
LINE
  8
0
 62
     7
 10
605.0
 20
5.0
 30
0.0
 11
1185.0
 21
5.0
 31
0.0
  0
LINE
  8
0
 62
     7
 10
1185.0
 20
410.0
 30
0.0
 11
1185.0
 21
5.0
 31
0.0
  0
LINE
  8
0
 62
     7
 10
1185.0
 20
410.0
 30
0.0
 11
605.0
 21
410.0
 31
0.0
  0
LINE
  8
0
 62
     7
 10
600.0
 20
415.0
 30
0.0
 11
600.0
 21
0.0
 31
0.0
  0
LINE
  8
0
 62
     7
 10
1190.0
 20
0.0
 30
0.0
 11
1190.0
 21
415.0
 31
0.0
  0
LINE
  8
0
 62
     7
 10
1190.0
 20
415.0
 30
0.0
 11
600.0
 21
415.0
 31
0.0
  0
LINE
  8
0
 62
     7
 10
1190.0
 20
0.0
 30
0.0
 11
600.0
 21
0.0
 31
0.0
  0
TEXT
  8
0
 10
836.618524
 20
362.536595
 30
0.0
 40
10.0
  7
CSTEXT
  1
検定専用品　ブスバー配線用
 41
0.800000
 72
     5
 11
946.618524
 21
362.536595
 31
0.0
  0
LINE
  8
0
 10
836.618524
 20
361.536595
 30
0.0
 11
946.618524
 21
361.536595
 31
0.0
  0
TEXT
  8
3
 10
601.0
 20
0.500000
 30
0.0
 40
3.500000
  7
CSTEXT
  1
BK-15LMS-4
 41
0.800000
 72
     5
 11
624.240000
 21
0.500000
 31
0.0
  0
TEXT
  8
0
 10
853.618524
 20
347.536595
 30
0.0
 40
10.0
  7
CSTEXT
  1
４００Ａ、５００Ａ
 41
0.800000
 72
     5
 11
929.618524
 21
347.536595
 31
0.0
  0
LINE
  8
0
 10
929.618524
 20
346.536595
 30
0.0
 11
853.618524
 21
346.536595
 31
0.0
  0
LINE
  8
0
 10
805.817293
 20
255.591200
 30
0.0
 11
805.817293
 21
272.118704
 31
0.0
  0
LINE
  8
0
 10
795.817293
 20
255.591200
 30
0.0
 11
795.817293
 21
272.118704
 31
0.0
  0
LINE
  8
0
 10
800.817293
 20
270.118704
 30
0.0
 11
805.817293
 21
270.118704
 31
0.0
  0
LINE
  8
0
 10
805.817293
 20
270.118704
 30
0.0
 11
811.817293
 21
270.118704
 31
0.0
  0
LINE
  8
0
 10
807.817293
 20
270.654602
 30
0.0
 11
805.817293
 21
270.118704
 31
0.0
  0
LINE
  8
0
 10
805.817293
 20
270.118704
 30
0.0
 11
807.817293
 21
269.582805
 31
0.0
  0
LINE
  8
0
 10
800.817293
 20
270.118704
 30
0.0
 11
795.817293
 21
270.118704
 31
0.0
  0
LINE
  8
0
 10
795.817293
 20
270.118704
 30
0.0
 11
774.497293
 21
270.118704
 31
0.0
  0
LINE
  8
0
 10
793.817293
 20
269.582805
 30
0.0
 11
795.817293
 21
270.118704
 31
0.0
  0
LINE
  8
0
 10
795.817293
 20
270.118704
 30
0.0
 11
793.817293
 21
270.654602
 31
0.0
  0
TEXT
  8
0
 10
774.497293
 20
270.118704
 30
0.0
 40
5.0
  7
CSTEXT
  1
5～
 41
0.800000
 72
     5
 11
781.817293
 21
270.118704
 31
0.0
  0
TEXT
  8
0
 10
781.817293
 20
270.118704
 30
0.0
 40
5.0
  7
CSTEXT
  1
１０
 41
0.800000
 72
     5
 11
789.817293
 21
270.118704
 31
0.0
  0
LINE
  8
0
 10
831.217293
 20
182.838890
 30
0.0
 11
831.217293
 21
121.885050
 31
0.0
  0
LINE
  8
0
 10
770.317293
 20
165.838890
 30
0.0
 11
770.317293
 21
121.885050
 31
0.0
  0
LINE
  8
0
 10
800.767293
 20
123.885050
 30
0.0
 11
831.217293
 21
123.885050
 31
0.0
  0
LINE
  8
0
 10
829.217293
 20
124.420949
 30
0.0
 11
831.217293
 21
123.885050
 31
0.0
  0
LINE
  8
0
 10
831.217293
 20
123.885050
 30
0.0
 11
829.217293
 21
123.349152
 31
0.0
  0
LINE
  8
0
 10
800.767293
 20
123.885050
 30
0.0
 11
770.317293
 21
123.885050
 31
0.0
  0
LINE
  8
0
 10
772.317293
 20
123.349152
 30
0.0
 11
770.317293
 21
123.885050
 31
0.0
  0
LINE
  8
0
 10
770.317293
 20
123.885050
 30
0.0
 11
772.317293
 21
124.420949
 31
0.0
  0
TEXT
  8
0
 10
796.767293
 20
123.885050
 30
0.0
 40
5.0
  7
CSTEXT
  1
６１
 41
0.800000
 72
     5
 11
804.767293
 21
123.885050
 31
0.0
  0
LINE
  8
0
 10
832.317293
 20
210.088890
 30
0.0
 11
841.927672
 21
225.125940
 31
0.0
  0
LINE
  8
0
 10
833.067885
 20
212.457468
 30
0.0
 11
832.317293
 21
210.088890
 31
0.0
  0
LINE
  8
0
 10
832.317293
 20
210.088890
 30
0.0
 11
834.151614
 21
211.764843
 31
0.0
  0
TEXT
  8
0
 10
845.927672
 20
225.125940
 30
0.0
 40
5.0
  7
CSTEXT
  1
ブスバー取付金具
 41
0.800000
 72
     5
 11
877.927672
 21
225.125940
 31
0.0
  0
LINE
  8
0
 10
841.927672
 20
225.125940
 30
0.0
 11
877.927672
 21
225.125940
 31
0.0
  0
LINE
  8
0
 10
987.310682
 20
175.238890
 30
0.0
 11
1025.527434
 21
139.950944
 31
0.0
  0
LINE
  8
0
 10
989.510219
 20
174.083214
 30
0.0
 11
987.310682
 21
175.238890
 31
0.0
  0
LINE
  8
0
 10
987.310682
 20
175.238890
 30
0.0
 11
988.637698
 21
173.138277
 31
0.0
  0
TEXT
  8
0
 10
1029.527434
 20
139.950944
 30
0.0
 40
5.0
  7
CSTEXT
  1
検定封印穴φ2
 41
0.800000
 72
     5
 11
1056.847434
 21
139.950944
 31
0.0
  0
LINE
  8
0
 10
1025.527434
 20
139.950944
 30
0.0
 11
1056.847434
 21
139.950944
 31
0.0
  0
LINE
  8
0
 10
959.310682
 20
145.141110
 30
0.0
 11
959.310682
 21
125.441336
 31
0.0
  0
LINE
  8
0
 10
1009.310682
 20
145.141110
 30
0.0
 11
1009.310682
 21
125.441336
 31
0.0
  0
LINE
  8
0
 10
984.310682
 20
127.441336
 30
0.0
 11
959.310682
 21
127.441336
 31
0.0
  0
LINE
  8
0
 10
961.310682
 20
126.905437
 30
0.0
 11
959.310682
 21
127.441336
 31
0.0
  0
LINE
  8
0
 10
959.310682
 20
127.441336
 30
0.0
 11
961.310682
 21
127.977234
 31
0.0
  0
LINE
  8
0
 10
984.310682
 20
127.441336
 30
0.0
 11
1009.310682
 21
127.441336
 31
0.0
  0
LINE
  8
0
 10
1007.310682
 20
127.977234
 30
0.0
 11
1009.310682
 21
127.441336
 31
0.0
  0
LINE
  8
0
 10
1009.310682
 20
127.441336
 30
0.0
 11
1007.310682
 21
126.905437
 31
0.0
  0
TEXT
  8
0
 10
973.670682
 20
127.441336
 30
0.0
 40
5.0
  7
CSTEXT
  1
MAX.
 41
0.800000
 72
     5
 11
986.950682
 21
127.441336
 31
0.0
  0
TEXT
  8
0
 10
986.950682
 20
127.441336
 30
0.0
 40
5.0
  7
CSTEXT
  1
５０
 41
0.800000
 72
     5
 11
994.950682
 21
127.441336
 31
0.0
  0
LINE
  8
0
 10
839.790867
 20
179.772850
 30
0.0
 11
846.857754
 21
188.596465
 31
0.0
  0
LINE
  8
0
 10
840.789232
 20
182.048112
 30
0.0
 11
839.790867
 21
179.772850
 31
0.0
  0
LINE
  8
0
 10
839.790867
 20
179.772850
 30
0.0
 11
841.793107
 21
181.244102
 31
0.0
  0
TEXT
  8
0
 10
850.857754
 20
188.596465
 30
0.0
 40
5.0
  7
CSTEXT
  1
M5ネジ
 41
0.800000
 72
     5
 11
865.497754
 21
188.596465
 31
0.0
  0
LINE
  8
0
 10
846.857754
 20
188.596465
 30
0.0
 11
865.497754
 21
188.596465
 31
0.0
  0
LINE
  8
0
 10
805.766575
 20
246.460090
 30
0.0
 11
849.081968
 21
262.591340
 31
0.0
  0
LINE
  8
0
 10
807.791239
 20
247.900329
 30
0.0
 11
805.766575
 21
246.460090
 31
0.0
  0
LINE
  8
0
 10
805.766575
 20
246.460090
 30
0.0
 11
808.240104
 21
246.695041
 31
0.0
  0
TEXT
  8
0
 10
853.081968
 20
262.591340
 30
0.0
 40
5.0
  7
CSTEXT
  1
ブスバー
 41
0.800000
 72
     5
 11
869.081968
 21
262.591340
 31
0.0
  0
LINE
  8
0
 10
849.081968
 20
262.591340
 30
0.0
 11
869.081968
 21
262.591340
 31
0.0
  0
LINE
  8
7
 62
     4
  6
PHANTOM
 10
795.817293
 20
142.875680
 30
0.0
 11
795.817293
 21
253.591200
 31
0.0
  0
LINE
  8
7
 10
781.417292
 20
160.338890
 30
0.0
 11
781.417292
 21
158.338890
 31
0.0
  0
LINE
  8
7
 10
777.217292
 20
160.338890
 30
0.0
 11
777.217292
 21
158.338890
 31
0.0
  0
LINE
  8
7
 10
781.817292
 20
160.338890
 30
0.0
 11
781.817292
 21
158.338890
 31
0.0
  0
LINE
  8
7
 10
776.817292
 20
160.338890
 30
0.0
 11
776.817292
 21
158.338890
 31
0.0
  0
LINE
  8
7
 10
781.817292
 20
158.338890
 30
0.0
 11
776.817292
 21
158.338890
 31
0.0
  0
LINE
  8
7
 10
783.617297
 20
222.338890
 30
0.0
 11
783.617297
 21
228.338890
 31
0.0
  0
LINE
  8
7
 10
783.617297
 20
228.338890
 30
0.0
 11
785.117297
 21
228.338890
 31
0.0
  0
LINE
  8
7
 10
783.617297
 20
222.838890
 30
0.0
 11
785.117297
 21
222.838890
 31
0.0
  0
LINE
  8
7
 10
783.617297
 20
222.338890
 30
0.0
 11
785.117297
 21
222.338890
 31
0.0
  0
LINE
  8
7
 10
783.617297
 20
227.838890
 30
0.0
 11
785.117297
 21
227.838890
 31
0.0
  0
LINE
  8
7
 62
     4
  6
PHANTOM
 10
805.817293
 20
142.875680
 30
0.0
 11
805.817293
 21
253.591200
 31
0.0
  0
LINE
  8
6
 10
800.817293
 20
259.371250
 30
0.0
 11
800.817293
 21
133.387560
 31
0.0
  0
LINE
  8
7
 10
820.217293
 20
160.338890
 30
0.0
 11
820.217293
 21
158.838890
 31
0.0
  0
LINE
  8
7
 10
824.417293
 20
160.338890
 30
0.0
 11
824.417293
 21
158.838890
 31
0.0
  0
LINE
  8
7
 10
819.817293
 20
160.338890
 30
0.0
 11
819.817293
 21
158.838890
 31
0.0
  0
LINE
  8
7
 10
824.817293
 20
160.338890
 30
0.0
 11
824.817293
 21
158.838890
 31
0.0
  0
LINE
  8
7
 10
819.817293
 20
158.838890
 30
0.0
 11
824.817293
 21
158.838890
 31
0.0
  0
POINT
  8
7
 10
831.317293
 20
165.338890
 30
0.0
  0
LINE
  8
6
 10
984.310682
 20
142.513180
 30
0.0
 11
984.310682
 21
255.218530
 31
0.0
  0
LINE
  8
7
 62
     4
  6
PHANTOM
 10
1009.310682
 20
147.141110
 30
0.0
 11
1009.310682
 21
249.902570
 31
0.0
  0
LINE
  8
7
 62
     4
  6
PHANTOM
 10
959.310682
 20
147.141110
 30
0.0
 11
959.310682
 21
249.902570
 31
0.0
  0
LINE
  8
7
 10
950.310682
 20
160.338890
 30
0.0
 11
950.310682
 21
158.838890
 31
0.0
  0
LINE
  8
7
 10
945.310682
 20
160.338890
 30
0.0
 11
945.310682
 21
158.838890
 31
0.0
  0
LINE
  8
7
 10
949.910682
 20
160.338890
 30
0.0
 11
949.910682
 21
158.838890
 31
0.0
  0
LINE
  8
7
 10
945.710682
 20
160.338890
 30
0.0
 11
945.710682
 21
158.838890
 31
0.0
  0
LINE
  8
7
 10
945.310682
 20
158.838890
 30
0.0
 11
950.310682
 21
158.838890
 31
0.0
  0
LINE
  8
7
 10
1018.310682
 20
160.338890
 30
0.0
 11
1018.310682
 21
158.838890
 31
0.0
  0
LINE
  8
7
 10
1023.310682
 20
160.338890
 30
0.0
 11
1023.310682
 21
158.838890
 31
0.0
  0
LINE
  8
7
 10
1018.710682
 20
160.338890
 30
0.0
 11
1018.710682
 21
158.838890
 31
0.0
  0
LINE
  8
7
 10
1022.910682
 20
160.338890
 30
0.0
 11
1022.910682
 21
158.838890
 31
0.0
  0
LINE
  8
7
 10
1023.310682
 20
158.838890
 30
0.0
 11
1018.310682
 21
158.838890
 31
0.0
  0
ARC
  8
7
 10
1019.810682
 20
233.838890
 30
0.0
 40
5.000000
 50
0.000000
 51
90.000000
  0
CIRCLE
  8
7
 10
1013.310682
 20
225.838890
 30
0.0
 40
5.749999
  0
CIRCLE
  8
7
 10
1013.310682
 20
225.838890
 30
0.0
 40
5.249999
  0
ARC
  8
7
 10
948.810682
 20
233.838890
 30
0.0
 40
5.000000
 50
90.000000
 51
180.000000
  0
LINE
  8
7
 10
948.810682
 20
238.838890
 30
0.0
 11
1019.810682
 21
238.838890
 31
0.0
  0
POINT
  8
7
 10
1024.810678
 20
233.838888
 30
0.0
  0
POINT
  8
7
 10
943.810662
 20
233.838888
 30
0.0
  0
ARC
  8
7
 10
1025.310682
 20
209.838890
 30
0.0
 40
1.500000
 50
0.000000
 51
90.000000
  0
ARC
  8
7
 10
1026.010682
 20
210.338890
 30
0.0
 40
1.000000
 50
0.000000
 51
90.000000
  0
ARC
  8
7
 10
1025.960682
 20
209.738890
 30
0.0
 40
3.600000
 50
0.000000
 51
90.000000
  0
LINE
  8
7
 10
1027.010682
 20
205.938890
 30
0.0
 11
1029.560682
 21
205.938890
 31
0.0
  0
LINE
  8
7
 10
1029.560682
 20
205.938890
 30
0.0
 11
1029.560682
 21
209.738890
 31
0.0
  0
LINE
  8
7
 10
1027.010682
 20
205.938890
 30
0.0
 11
1027.010682
 21
210.338890
 31
0.0
  0
ARC
  8
7
 10
1025.310682
 20
166.838890
 30
0.0
 40
1.500000
 50
270.000000
 51
360.000000
  0
LINE
  8
7
 10
1026.810682
 20
175.238890
 30
0.0
 11
1026.810682
 21
166.838890
 31
0.0
  0
LINE
  8
7
 10
1026.810682
 20
175.238890
 30
0.0
 11
1026.810682
 21
209.838890
 31
0.0
  0
LINE
  8
7
 62
     4
  6
DASHED
 10
1011.810682
 20
165.338890
 30
0.0
 11
1011.810682
 21
210.938890
 31
0.0
  0
LINE
  8
7
 10
1025.310682
 20
165.338890
 30
0.0
 11
935.270722
 21
165.338890
 31
0.0
  0
LINE
  8
7
 10
1013.810682
 20
211.338890
 30
0.0
 11
1025.310682
 21
211.338890
 31
0.0
  0
POINT
  8
7
 10
1020.810682
 20
165.338890
 30
0.0
  0
LINE
  8
7
 10
1025.810682
 20
164.338890
 30
0.0
 11
1025.410682
 21
164.338890
 31
0.0
  0
LINE
  8
7
 10
1025.810682
 20
165.338890
 30
0.0
 11
1025.810682
 21
164.338890
 31
0.0
  0
LINE
  8
7
 10
1015.810682
 20
165.338890
 30
0.0
 11
1025.810682
 21
165.338890
 31
0.0
  0
LINE
  8
7
 10
1015.810682
 20
164.338890
 30
0.0
 11
1015.810682
 21
165.338890
 31
0.0
  0
LINE
  8
7
 10
1016.210681
 20
164.338890
 30
0.0
 11
1015.810682
 21
164.338890
 31
0.0
  0
LINE
  8
7
 10
1023.110682
 20
160.738891
 30
0.0
 11
1023.110682
 21
164.338890
 31
0.0
  0
LINE
  8
7
 10
1018.510682
 20
160.738891
 30
0.0
 11
1018.510682
 21
164.338890
 31
0.0
  0
LINE
  8
7
 10
1016.210682
 20
160.738891
 30
0.0
 11
1016.210682
 21
164.338889
 31
0.0
  0
LINE
  8
7
 10
1016.910687
 20
160.338897
 30
0.0
 11
1016.210687
 21
160.738897
 31
0.0
  0
LINE
  8
7
 10
1024.710681
 20
160.338890
 30
0.0
 11
1016.910683
 21
160.338890
 31
0.0
  0
LINE
  8
7
 10
1025.410676
 20
160.738897
 30
0.0
 11
1024.710677
 21
160.338897
 31
0.0
  0
LINE
  8
7
 10
1025.410681
 20
164.338891
 30
0.0
 11
1025.410681
 21
160.738891
 31
0.0
  0
LINE
  8
7
 10
1016.210681
 20
164.338890
 30
0.0
 11
1025.410682
 21
164.338890
 31
0.0
  0
LINE
  8
7
 10
1021.561234
 20
215.438889
 30
0.0
 11
1020.810682
 21
214.138891
 31
0.0
  0
LINE
  8
7
 10
1020.810682
 20
215.438889
 30
0.0
 11
1020.060129
 21
214.138891
 31
0.0
  0
LINE
  8
7
 10
1025.810682
 20
213.338890
 30
0.0
 11
1025.810682
 21
214.138891
 31
0.0
  0
LINE
  8
7
 10
1015.810682
 20
214.138891
 30
0.0
 11
1015.810682
 21
213.338890
 31
0.0
  0
LINE
  8
7
 10
1015.810682
 20
214.138891
 30
0.0
 11
1025.810682
 21
214.138891
 31
0.0
  0
LINE
  8
7
 10
1024.985680
 20
214.138891
 30
0.0
 11
1024.985680
 21
215.438890
 31
0.0
  0
LINE
  8
7
 10
1016.635684
 20
214.138891
 30
0.0
 11
1016.635684
 21
215.438890
 31
0.0
  0
LINE
  8
7
 10
1025.310682
 20
215.438890
 30
0.0
 11
1025.310682
 21
216.726384
 31
0.0
  0
LINE
  8
7
 10
1016.310682
 20
215.438890
 30
0.0
 11
1016.310682
 21
216.726384
 31
0.0
  0
LINE
  8
7
 10
1025.310682
 20
215.438890
 30
0.0
 11
1016.310682
 21
215.438890
 31
0.0
  0
LINE
  8
7
 10
987.310682
 20
175.238890
 30
0.0
 11
987.310682
 21
178.238890
 31
0.0
  0
LINE
  8
7
 10
981.310682
 20
175.238890
 30
0.0
 11
981.310682
 21
178.238890
 31
0.0
  0
LINE
  8
7
 10
981.310682
 20
175.238890
 30
0.0
 11
987.310682
 21
175.238890
 31
0.0
  0
LINE
  8
7
 10
981.310682
 20
178.238890
 30
0.0
 11
987.310682
 21
178.238890
 31
0.0
  0
ARC
  8
7
 10
942.610682
 20
210.338890
 30
0.0
 40
1.000000
 50
90.000000
 51
180.000000
  0
ARC
  8
7
 10
942.660682
 20
209.738890
 30
0.0
 40
3.600000
 50
90.000000
 51
180.000000
  0
LINE
  8
7
 10
939.060682
 20
205.938890
 30
0.0
 11
941.610682
 21
205.938890
 31
0.0
  0
LINE
  8
7
 10
939.060682
 20
205.938890
 30
0.0
 11
939.060682
 21
209.738890
 31
0.0
  0
LINE
  8
7
 10
941.610682
 20
205.938890
 30
0.0
 11
941.610682
 21
210.338890
 31
0.0
  0
ARC
  8
7
 10
944.310682
 20
208.838890
 30
0.0
 40
2.500000
 50
90.000000
 51
180.000000
  0
ARC
  8
7
 10
941.909652
 20
184.738890
 30
0.0
 40
0.500000
 50
90.000000
 51
180.000000
  0
ARC
  8
7
 10
943.735252
 20
184.738890
 30
0.0
 40
0.500000
 50
90.000000
 51
180.000000
  0
LINE
  8
7
 10
941.810682
 20
185.238890
 30
0.0
 11
941.810682
 21
208.838890
 31
0.0
  0
LINE
  8
7
 10
945.213302
 20
179.769670
 30
0.0
 11
953.042252
 21
179.769670
 31
0.0
  0
LINE
  8
7
 10
947.060129
 20
215.438889
 30
0.0
 11
947.810682
 21
214.138891
 31
0.0
  0
LINE
  8
7
 10
947.810682
 20
215.438889
 30
0.0
 11
948.561234
 21
214.138891
 31
0.0
  0
LINE
  8
7
 10
942.810682
 20
213.338890
 30
0.0
 11
942.810682
 21
214.138891
 31
0.0
  0
LINE
  8
7
 10
952.810682
 20
214.138891
 30
0.0
 11
952.810682
 21
213.338890
 31
0.0
  0
LINE
  8
7
 10
952.810682
 20
214.138891
 30
0.0
 11
942.810682
 21
214.138891
 31
0.0
  0
LINE
  8
7
 10
943.635684
 20
214.138891
 30
0.0
 11
943.635684
 21
215.438890
 31
0.0
  0
LINE
  8
7
 10
951.985680
 20
214.138891
 30
0.0
 11
951.985680
 21
215.438890
 31
0.0
  0
ARC
  8
7
 10
944.910681
 20
216.726384
 30
0.0
 40
1.599999
 50
106.191280
 51
180.0
  0
ARC
  8
7
 10
950.710682
 20
216.726384
 30
0.0
 40
1.599999
 50
0.0
 51
73.808590
  0
LINE
  8
7
 10
943.310682
 20
215.438890
 30
0.0
 11
943.310682
 21
216.726384
 31
0.0
  0
LINE
  8
7
 10
952.310682
 20
215.438890
 30
0.0
 11
952.310682
 21
216.726384
 31
0.0
  0
LINE
  8
7
 10
943.310682
 20
215.438890
 30
0.0
 11
952.310682
 21
215.438890
 31
0.0
  0
ARC
  8
7
 10
947.810682
 20
206.738891
 30
0.0
 40
12.0
 50
73.808650
 51
106.191340
  0
LINE
  8
7
 10
961.174572
 20
175.238890
 30
0.0
 11
961.174572
 21
165.338890
 31
0.0
  0
LINE
  8
7
 10
953.451662
 20
178.469670
 30
0.0
 11
953.042252
 21
178.469670
 31
0.0
  0
LINE
  8
7
 10
950.979782
 20
171.000160
 30
0.0
 11
951.310122
 21
171.713160
 31
0.0
  0
LINE
  8
7
 10
951.310122
 20
171.713160
 30
0.0
 11
951.549022
 21
172.510710
 31
0.0
  0
LINE
  8
7
 10
951.549022
 20
172.510710
 30
0.0
 11
951.687962
 21
173.364400
 31
0.0
  0
LINE
  8
7
 10
951.687962
 20
173.364400
 30
0.0
 11
951.722012
 21
174.243780
 31
0.0
  0
LINE
  8
7
 10
951.722012
 20
174.243780
 30
0.0
 11
951.649942
 21
175.117510
 31
0.0
  0
LINE
  8
7
 10
951.649942
 20
175.117510
 30
0.0
 11
951.474322
 21
175.954450
 31
0.0
  0
LINE
  8
7
 10
951.474322
 20
175.954450
 30
0.0
 11
951.201412
 21
176.724760
 31
0.0
  0
LINE
  8
7
 10
951.201412
 20
176.724760
 30
0.0
 11
950.840942
 21
177.400990
 31
0.0
  0
LINE
  8
7
 10
950.968982
 20
169.907010
 30
0.0
 11
951.548782
 21
170.571380
 31
0.0
  0
LINE
  8
7
 10
951.548782
 20
170.571380
 30
0.0
 11
952.019002
 21
171.366470
 31
0.0
  0
LINE
  8
7
 10
952.019002
 20
171.366470
 30
0.0
 11
952.362222
 21
172.262800
 31
0.0
  0
LINE
  8
7
 10
952.362222
 20
172.262800
 30
0.0
 11
952.565722
 21
173.227190
 31
0.0
  0
LINE
  8
7
 10
952.565722
 20
173.227190
 30
0.0
 11
952.621972
 21
174.223920
 31
0.0
  0
LINE
  8
7
 10
952.621972
 20
174.223920
 30
0.0
 11
952.528892
 21
175.216060
 31
0.0
  0
LINE
  8
7
 10
952.528892
 20
175.216060
 30
0.0
 11
952.289912
 21
176.166860
 31
0.0
  0
LINE
  8
7
 10
952.289912
 20
176.166860
 30
0.0
 11
951.913892
 21
177.041110
 31
0.0
  0
LINE
  8
7
 10
951.913892
 20
177.041110
 30
0.0
 11
951.414772
 21
177.806430
 31
0.0
  0
LINE
  8
7
 10
951.414772
 20
177.806430
 30
0.0
 11
950.811032
 21
178.434460
 31
0.0
  0
ARC
  8
7
 10
956.130542
 20
166.338890
 30
0.0
 40
1.000000
 50
180.000000
 51
270.000000
  0
LINE
  8
7
 10
953.451662
 20
168.738890
 30
0.0
 11
953.451662
 21
178.469670
 31
0.0
  0
LINE
  8
7
 10
955.130542
 20
175.238890
 30
0.0
 11
955.130542
 21
166.338890
 31
0.0
  0
LINE
  8
7
 10
949.571602
 20
169.602280
 30
0.0
 11
950.094752
 21
169.925570
 31
0.0
  0
LINE
  8
7
 10
949.911392
 20
178.378990
 30
0.0
 11
949.375442
 21
178.645900
 31
0.0
  0
LINE
  8
7
 10
949.375442
 20
178.645900
 30
0.0
 11
948.817012
 21
178.750250
 31
0.0
  0
LINE
  8
7
 10
948.817012
 20
178.750250
 30
0.0
 11
948.256022
 21
178.688310
 31
0.0
  0
LINE
  8
7
 10
948.256022
 20
178.688310
 30
0.0
 11
947.712462
 21
178.462300
 31
0.0
  0
LINE
  8
7
 10
949.464602
 20
170.633120
 30
0.0
 11
949.828072
 21
171.103270
 31
0.0
  0
LINE
  8
7
 10
949.828072
 20
171.103270
 30
0.0
 11
950.133402
 21
171.680420
 31
0.0
  0
LINE
  8
7
 10
950.074022
 20
176.733950
 30
0.0
 11
949.755372
 21
177.289970
 31
0.0
  0
LINE
  8
7
 10
949.755372
 20
177.289970
 30
0.0
 11
949.381152
 21
177.735140
 31
0.0
  0
LINE
  8
7
 10
944.924222
 20
178.469670
 30
0.0
 11
945.213302
 21
178.469670
 31
0.0
  0
LINE
  8
7
 10
943.969522
 20
174.334360
 30
0.0
 11
943.969522
 21
173.713860
 31
0.0
  0
LINE
  8
7
 10
945.365652
 20
172.085050
 30
0.0
 11
944.977842
 21
172.085050
 31
0.0
  0
LINE
  8
7
 10
944.977842
 20
175.859760
 30
0.0
 11
945.365652
 21
175.859760
 31
0.0
  0
LINE
  8
7
 10
945.365652
 20
175.859760
 30
0.0
 11
945.365652
 21
174.334360
 31
0.0
  0
LINE
  8
7
 10
945.365652
 20
173.713860
 30
0.0
 11
945.365652
 21
172.085050
 31
0.0
  0
LINE
  8
7
 10
944.977842
 20
175.859760
 30
0.0
 11
944.977842
 21
174.334360
 31
0.0
  0
LINE
  8
7
 10
944.977842
 20
173.713860
 30
0.0
 11
944.977842
 21
172.085050
 31
0.0
  0
LINE
  8
7
 10
943.969522
 20
174.334360
 30
0.0
 11
944.977842
 21
174.334360
 31
0.0
  0
LINE
  8
7
 10
943.969522
 20
173.713860
 30
0.0
 11
944.977842
 21
173.713860
 31
0.0
  0
LINE
  8
7
 10
946.503232
 20
173.713860
 30
0.0
 11
946.503232
 21
174.334360
 31
0.0
  0
LINE
  8
7
 10
945.365652
 20
174.334360
 30
0.0
 11
946.503232
 21
174.334360
 31
0.0
  0
LINE
  8
7
 10
945.365652
 20
173.713860
 30
0.0
 11
946.503232
 21
173.713860
 31
0.0
  0
LINE
  8
7
 10
947.037972
 20
169.608620
 30
0.0
 11
948.356672
 21
174.022990
 31
0.0
  0
LINE
  8
7
 10
947.045862
 20
178.462300
 30
0.0
 11
948.356672
 21
174.022990
 31
0.0
  0
LINE
  8
7
 10
947.092032
 20
178.921100
 30
0.0
 11
946.402502
 21
178.462300
 31
0.0
  0
LINE
  8
7
 10
948.026782
 20
168.958470
 30
0.0
 11
948.802202
 21
168.914720
 31
0.0
  0
LINE
  8
7
 10
948.802202
 20
168.914720
 30
0.0
 11
949.569772
 21
169.063040
 31
0.0
  0
LINE
  8
7
 10
944.520832
 20
168.738890
 30
0.0
 11
944.520832
 21
169.608620
 31
0.0
  0
LINE
  8
7
 10
947.904502
 20
169.608620
 30
0.0
 11
948.456612
 21
169.440930
 31
0.0
  0
LINE
  8
7
 10
948.456612
 20
169.440930
 30
0.0
 11
949.018992
 21
169.438790
 31
0.0
  0
LINE
  8
7
 10
949.018992
 20
169.438790
 30
0.0
 11
949.571602
 21
169.602280
 31
0.0
  0
LINE
  8
7
 10
946.566492
 20
169.608620
 30
0.0
 11
947.272232
 21
169.192660
 31
0.0
  0
LINE
  8
7
 10
947.272232
 20
169.192660
 30
0.0
 11
948.026782
 21
168.958470
 31
0.0
  0
LINE
  8
7
 10
943.156582
 20
169.608620
 30
0.0
 11
942.235362
 21
174.022990
 31
0.0
  0
LINE
  8
7
 10
943.161782
 20
178.462300
 30
0.0
 11
942.235362
 21
174.022990
 31
0.0
  0
ARC
  8
7
 10
938.252962
 20
178.238890
 30
0.0
 40
0.500000
 50
90.000000
 51
180.000000
  0
LINE
  8
7
 10
942.899642
 20
168.738890
 30
0.0
 11
942.899642
 21
166.338890
 31
0.0
  0
LINE
  8
7
 10
939.632342
 20
168.738890
 30
0.0
 11
939.632342
 21
166.338890
 31
0.0
  0
ARC
  8
7
 10
940.632342
 20
166.338890
 30
0.0
 40
1.000000
 50
180.000000
 51
270.000000
  0
LINE
  8
7
 10
943.235252
 20
168.738890
 30
0.0
 11
943.235252
 21
169.608620
 31
0.0
  0
LINE
  8
7
 10
937.752962
 20
168.738890
 30
0.0
 11
937.752962
 21
178.238890
 31
0.0
  0
ARC
  8
7
 10
943.899642
 20
166.338890
 30
0.0
 40
1.000000
 50
180.000000
 51
270.000000
  0
LINE
  8
7
 10
943.156582
 20
169.608620
 30
0.0
 11
949.158552
 21
169.608620
 31
0.0
  0
LINE
  8
7
 10
943.161782
 20
178.462300
 30
0.0
 11
949.166442
 21
178.462300
 31
0.0
  0
LINE
  8
7
 10
949.166442
 20
178.462300
 30
0.0
 11
950.477262
 21
174.022990
 31
0.0
  0
LINE
  8
7
 10
949.158552
 20
169.608620
 30
0.0
 11
950.477262
 21
174.022990
 31
0.0
  0
LINE
  8
7
 10
950.477262
 20
174.022990
 30
0.0
 11
948.356672
 21
174.022990
 31
0.0
  0
LINE
  8
7
 10
950.094752
 20
169.925570
 30
0.0
 11
950.569792
 21
170.397130
 31
0.0
  0
LINE
  8
7
 10
950.569792
 20
170.397130
 30
0.0
 11
950.979782
 21
171.000160
 31
0.0
  0
LINE
  8
7
 10
950.840942
 20
177.400990
 30
0.0
 11
950.405772
 21
177.959030
 31
0.0
  0
LINE
  8
7
 10
950.405772
 20
177.959030
 30
0.0
 11
949.911392
 21
178.378990
 31
0.0
  0
LINE
  8
7
 10
950.133402
 20
171.680420
 30
0.0
 11
950.369832
 21
172.344260
 31
0.0
  0
LINE
  8
7
 10
950.369832
 20
172.344260
 30
0.0
 11
950.529062
 21
173.071390
 31
0.0
  0
LINE
  8
7
 10
950.529062
 20
173.071390
 30
0.0
 11
950.605462
 21
173.836220
 31
0.0
  0
LINE
  8
7
 10
950.605462
 20
173.836220
 30
0.0
 11
950.596342
 21
174.611820
 31
0.0
  0
LINE
  8
7
 10
950.596342
 20
174.611820
 30
0.0
 11
950.502042
 21
175.370870
 31
0.0
  0
LINE
  8
7
 10
950.502042
 20
175.370870
 30
0.0
 11
950.325862
 21
176.086650
 31
0.0
  0
LINE
  8
7
 10
950.325862
 20
176.086650
 30
0.0
 11
950.074022
 21
176.733950
 31
0.0
  0
LINE
  8
7
 10
949.569772
 20
169.063040
 30
0.0
 11
950.301062
 21
169.397940
 31
0.0
  0
LINE
  8
7
 10
950.301062
 20
169.397940
 30
0.0
 11
950.968982
 21
169.907010
 31
0.0
  0
LINE
  8
7
 10
950.811032
 20
178.434460
 30
0.0
 11
950.125022
 21
178.901960
 31
0.0
  0
POINT
  8
7
 10
947.810682
 20
165.338890
 30
0.0
  0
LINE
  8
7
 10
942.810682
 20
164.338890
 30
0.0
 11
943.210681
 21
164.338890
 31
0.0
  0
LINE
  8
7
 10
942.810682
 20
165.338890
 30
0.0
 11
942.810682
 21
164.338890
 31
0.0
  0
LINE
  8
7
 10
952.810682
 20
165.338890
 30
0.0
 11
942.810682
 21
165.338890
 31
0.0
  0
LINE
  8
7
 10
952.810682
 20
164.338890
 30
0.0
 11
952.810682
 21
165.338890
 31
0.0
  0
LINE
  8
7
 10
952.410682
 20
164.338890
 30
0.0
 11
952.810682
 21
164.338890
 31
0.0
  0
ARC
  8
7
 10
944.360683
 20
162.192027
 30
0.0
 40
1.853133
 50
270.0
 51
308.357670
  0
ARC
  8
7
 10
947.810682
 20
167.151390
 30
0.0
 40
6.812498
 50
250.268330
 51
289.731580
  0
ARC
  8
7
 10
951.260681
 20
162.192028
 30
0.0
 40
1.853135
 50
231.642265
 51
270.0
  0
LINE
  8
7
 10
945.510682
 20
160.738891
 30
0.0
 11
945.510682
 21
164.338890
 31
0.0
  0
LINE
  8
7
 10
950.110682
 20
160.738891
 30
0.0
 11
950.110682
 21
164.338890
 31
0.0
  0
LINE
  8
7
 10
952.410681
 20
160.738891
 30
0.0
 11
952.410681
 21
164.338889
 31
0.0
  0
LINE
  8
7
 10
951.710677
 20
160.338897
 30
0.0
 11
952.410676
 21
160.738897
 31
0.0
  0
LINE
  8
7
 10
943.910683
 20
160.338890
 30
0.0
 11
951.710681
 21
160.338890
 31
0.0
  0
LINE
  8
7
 10
943.210687
 20
160.738897
 30
0.0
 11
943.910687
 21
160.338897
 31
0.0
  0
LINE
  8
7
 10
943.210682
 20
164.338891
 30
0.0
 11
943.210682
 21
160.738891
 31
0.0
  0
LINE
  8
7
 10
952.410682
 20
164.338890
 30
0.0
 11
943.210681
 21
164.338890
 31
0.0
  0
LINE
  8
7
 62
     4
  6
DASHED
 10
956.810682
 20
165.338890
 30
0.0
 11
956.810682
 21
210.938890
 31
0.0
  0
LINE
  8
7
 10
945.213302
 20
178.469670
 30
0.0
 11
945.213302
 21
179.769670
 31
0.0
  0
LINE
  8
7
 10
953.042252
 20
178.469670
 30
0.0
 11
953.042252
 21
179.769670
 31
0.0
  0
LINE
  8
7
 10
943.235252
 20
178.462300
 30
0.0
 11
943.235252
 21
184.738890
 31
0.0
  0
LINE
  8
7
 10
944.520832
 20
178.462300
 30
0.0
 11
944.520832
 21
185.238890
 31
0.0
  0
LINE
  8
7
 10
939.632342
 20
168.738890
 30
0.0
 11
939.632342
 21
185.238890
 31
0.0
  0
LINE
  8
7
 10
941.409652
 20
168.738890
 30
0.0
 11
941.409652
 21
184.738890
 31
0.0
  0
LINE
  8
7
 10
961.174572
 20
175.238890
 30
0.0
 11
961.174572
 21
211.338890
 31
0.0
  0
LINE
  8
7
 10
955.130542
 20
175.238890
 30
0.0
 11
955.130542
 21
185.238890
 31
0.0
  0
LINE
  8
7
 10
950.125022
 20
178.901960
 30
0.0
 11
949.382172
 21
179.191590
 31
0.0
  0
LINE
  8
7
 10
949.382172
 20
179.191590
 30
0.0
 11
948.609982
 21
179.292630
 31
0.0
  0
LINE
  8
7
 10
948.609982
 20
179.292630
 30
0.0
 11
947.837062
 21
179.201340
 31
0.0
  0
LINE
  8
7
 10
947.837062
 20
179.201340
 30
0.0
 11
947.092032
 21
178.921100
 31
0.0
  0
LINE
  8
7
 10
942.610682
 20
211.338890
 30
0.0
 11
1026.010682
 21
211.338890
 31
0.0
  0
LINE
  8
7
 10
942.660682
 20
213.338890
 30
0.0
 11
1025.960682
 21
213.338890
 31
0.0
  0
LINE
  8
7
 10
943.810682
 20
217.888280
 30
0.0
 11
943.810682
 21
233.838890
 31
0.0
  0
LINE
  8
7
 10
1024.810682
 20
218.052600
 30
0.0
 11
1024.810682
 21
233.838890
 31
0.0
  0
POINT
  8
7
 10
1029.560666
 20
210.338886
 30
0.0
  0
POINT
  8
7
 10
939.060682
 20
210.338886
 30
0.0
  0
POINT
  8
7
 10
1025.810678
 20
165.338888
 30
0.0
  0
POINT
  8
7
 10
1026.010658
 20
211.338884
 30
0.0
  0
LINE
  8
7
 10
805.817293
 20
238.838890
 30
0.0
 11
808.417293
 21
238.838890
 31
0.0
  0
LINE
  8
7
 10
810.717292
 20
226.204913
 30
0.0
 11
809.217293
 21
225.338890
 31
0.0
  0
LINE
  8
7
 10
810.717292
 20
225.338890
 30
0.0
 11
809.217293
 21
224.472867
 31
0.0
  0
ARC
  8
7
 10
812.244309
 20
228.688890
 30
0.0
 40
1.900000
 50
16.072820
 51
90.0
  0
ARC
  8
7
 10
812.244309
 20
221.988891
 30
0.0
 40
1.900000
 50
270.0
 51
343.927110
  0
LINE
  8
7
 10
812.244309
 20
230.588889
 30
0.0
 11
810.717293
 21
230.588889
 31
0.0
  0
LINE
  8
7
 10
812.244309
 20
220.088891
 30
0.0
 11
810.717293
 21
220.088891
 31
0.0
  0
LINE
  8
7
 10
810.717293
 20
220.088891
 30
0.0
 11
810.717293
 21
230.588889
 31
0.0
  0
LINE
  8
7
 10
809.217293
 20
230.408890
 30
0.0
 11
810.717293
 21
230.408890
 31
0.0
  0
LINE
  8
7
 10
810.717293
 20
220.268891
 30
0.0
 11
809.217293
 21
220.268891
 31
0.0
  0
LINE
  8
7
 10
809.217293
 20
231.088889
 30
0.0
 11
808.417293
 21
231.088889
 31
0.0
  0
LINE
  8
7
 10
809.217293
 20
219.588891
 30
0.0
 11
808.417293
 21
219.588891
 31
0.0
  0
LINE
  8
7
 10
809.217293
 20
219.588891
 30
0.0
 11
809.217293
 21
231.088889
 31
0.0
  0
LINE
  8
7
 10
808.417293
 20
219.588891
 30
0.0
 11
808.417293
 21
231.088889
 31
0.0
  0
POINT
  8
7
 10
808.417293
 20
225.338890
 30
0.0
  0
ARC
  8
7
 10
800.617293
 20
225.338890
 30
0.0
 40
14.0
 50
343.927160
 51
376.072820
  0
LINE
  8
7
 10
935.999992
 20
169.612560
 30
0.0
 11
936.516972
 21
169.929310
 31
0.0
  0
LINE
  8
7
 10
936.511552
 20
178.270520
 30
0.0
 11
935.988322
 21
178.588210
 31
0.0
  0
LINE
  8
7
 10
936.521982
 20
176.715050
 30
0.0
 11
936.275422
 21
177.170800
 31
0.0
  0
LINE
  8
7
 10
933.036472
 20
173.726330
 30
0.0
 11
933.036472
 21
174.346830
 31
0.0
  0
LINE
  8
7
 10
931.898892
 20
172.097520
 30
0.0
 11
931.511082
 21
172.097520
 31
0.0
  0
LINE
  8
7
 10
931.511082
 20
175.872230
 30
0.0
 11
931.898892
 21
175.872230
 31
0.0
  0
LINE
  8
7
 10
931.898892
 20
175.872230
 30
0.0
 11
931.898892
 21
174.346830
 31
0.0
  0
LINE
  8
7
 10
931.898892
 20
173.726330
 30
0.0
 11
931.898892
 21
172.097520
 31
0.0
  0
LINE
  8
7
 10
931.511082
 20
175.872230
 30
0.0
 11
931.511082
 21
174.346830
 31
0.0
  0
LINE
  8
7
 10
931.511082
 20
173.726330
 30
0.0
 11
931.511082
 21
172.097520
 31
0.0
  0
LINE
  8
7
 10
931.898892
 20
174.346830
 30
0.0
 11
933.036472
 21
174.346830
 31
0.0
  0
LINE
  8
7
 10
931.898892
 20
173.726330
 30
0.0
 11
933.036472
 21
173.726330
 31
0.0
  0
LINE
  8
7
 10
930.236904
 20
174.346830
 30
0.0
 11
930.236904
 21
173.726330
 31
0.0
  0
LINE
  8
7
 10
930.236904
 20
174.346830
 30
0.0
 11
931.511082
 21
174.346830
 31
0.0
  0
LINE
  8
7
 10
930.236904
 20
173.726330
 30
0.0
 11
931.511082
 21
173.726330
 31
0.0
  0
LINE
  8
7
 10
930.489704
 20
178.462300
 30
0.0
 11
936.013822
 21
178.462300
 31
0.0
  0
LINE
  8
7
 10
932.924712
 20
169.608620
 30
0.0
 11
933.836032
 21
174.035460
 31
0.0
  0
LINE
  8
7
 10
932.938752
 20
178.462300
 30
0.0
 11
933.835422
 21
174.035460
 31
0.0
  0
ARC
  8
7
 10
935.270722
 20
166.338890
 30
0.0
 40
1.000000
 50
180.000000
 51
270.000000
  0
LINE
  8
7
 10
934.270722
 20
169.608620
 30
0.0
 11
934.270722
 21
166.338890
 31
0.0
  0
LINE
  8
7
 10
935.999182
 20
169.608620
 30
0.0
 11
930.484504
 21
169.608620
 31
0.0
  0
LINE
  8
7
 10
930.484504
 20
169.608620
 30
0.0
 11
929.563284
 21
174.022990
 31
0.0
  0
LINE
  8
7
 10
930.489704
 20
178.462300
 30
0.0
 11
929.563284
 21
174.022990
 31
0.0
  0
LINE
  8
7
 10
934.270722
 20
178.462300
 30
0.0
 11
934.270722
 21
185.238890
 31
0.0
  0
ARC
  8
7
 10
830.817293
 20
206.838890
 30
0.0
 40
1.500000
 50
270.000000
 51
360.000000
  0
LINE
  8
7
 10
832.317293
 20
206.838890
 30
0.0
 11
832.317293
 21
213.338890
 31
0.0
  0
LINE
  8
7
 10
838.111458
 20
179.772850
 30
0.0
 11
838.111458
 21
183.838890
 31
0.0
  0
LINE
  8
7
 10
836.011653
 20
179.772850
 30
0.0
 11
836.011653
 21
181.520890
 31
0.0
  0
ARC
  8
7
 10
837.111458
 20
183.838890
 30
0.0
 40
1.000000
 50
0.000000
 51
90.000000
  0
LINE
  8
7
 10
832.465248
 20
179.898760
 30
0.0
 11
831.934976
 21
179.575530
 31
0.0
  0
LINE
  8
7
 10
836.011653
 20
181.520890
 30
0.0
 11
830.945355
 21
181.520890
 31
0.0
  0
LINE
  8
7
 10
839.790867
 20
179.772850
 30
0.0
 11
832.439745
 21
179.772850
 31
0.0
  0
LINE
  8
7
 10
831.217293
 20
205.393210
 30
0.0
 11
831.217293
 21
184.838890
 31
0.0
  0
LINE
  8
7
 10
839.796072
 20
170.919170
 30
0.0
 11
840.717293
 21
175.333540
 31
0.0
  0
LINE
  8
7
 10
838.450804
 20
175.657380
 30
0.0
 11
838.450804
 21
175.036880
 31
0.0
  0
LINE
  8
7
 10
835.917095
 20
175.036880
 30
0.0
 11
835.917095
 21
175.657380
 31
0.0
  0
LINE
  8
7
 10
837.054679
 20
175.036880
 30
0.0
 11
835.917095
 21
175.036880
 31
0.0
  0
LINE
  8
7
 10
837.054679
 20
175.657380
 30
0.0
 11
835.917095
 21
175.657380
 31
0.0
  0
LINE
  8
7
 10
837.054679
 20
175.036880
 30
0.0
 11
837.054679
 21
173.408070
 31
0.0
  0
LINE
  8
7
 10
837.054679
 20
177.182780
 30
0.0
 11
837.054679
 21
175.657380
 31
0.0
  0
LINE
  8
7
 10
837.442491
 20
177.182780
 30
0.0
 11
837.054679
 21
177.182780
 31
0.0
  0
LINE
  8
7
 10
837.054679
 20
173.408070
 30
0.0
 11
837.442491
 21
173.408070
 31
0.0
  0
LINE
  8
7
 10
838.450804
 20
175.036880
 30
0.0
 11
837.442491
 21
175.036880
 31
0.0
  0
LINE
  8
7
 10
838.450804
 20
175.657380
 30
0.0
 11
837.442491
 21
175.657380
 31
0.0
  0
LINE
  8
7
 10
837.442491
 20
175.036880
 30
0.0
 11
837.442491
 21
173.408070
 31
0.0
  0
LINE
  8
7
 10
837.442491
 20
177.182780
 30
0.0
 11
837.442491
 21
175.657380
 31
0.0
  0
ARC
  8
7
 10
837.111458
 20
166.338890
 30
0.0
 40
1.000000
 50
270.000000
 51
360.000000
  0
LINE
  8
7
 10
836.011653
 20
168.338890
 30
0.0
 11
836.011653
 21
170.919170
 31
0.0
  0
LINE
  8
7
 10
838.111458
 20
166.338890
 30
0.0
 11
838.111458
 21
170.919170
 31
0.0
  0
LINE
  8
7
 10
831.453611
 20
174.670340
 30
0.0
 11
831.548556
 21
174.081750
 31
0.0
  0
LINE
  8
7
 10
831.548556
 20
174.081750
 30
0.0
 11
831.693508
 21
173.523310
 31
0.0
  0
LINE
  8
7
 10
831.693508
 20
173.523310
 30
0.0
 11
831.885307
 21
173.007170
 31
0.0
  0
LINE
  8
7
 10
831.885307
 20
173.007170
 30
0.0
 11
832.119774
 21
172.544600
 31
0.0
  0
LINE
  8
7
 10
832.178146
 20
178.481350
 30
0.0
 11
831.922162
 21
178.005190
 31
0.0
  0
LINE
  8
7
 10
831.922162
 20
178.005190
 30
0.0
 11
831.712896
 21
177.467250
 31
0.0
  0
LINE
  8
7
 10
831.712896
 20
177.467250
 30
0.0
 11
831.555436
 21
176.880630
 31
0.0
  0
LINE
  8
7
 10
831.555436
 20
176.880630
 30
0.0
 11
831.453611
 21
176.259580
 31
0.0
  0
LINE
  8
7
 10
831.453611
 20
171.716420
 30
0.0
 11
831.929559
 21
171.245420
 31
0.0
  0
LINE
  8
7
 10
831.929559
 20
171.245420
 30
0.0
 11
832.453576
 21
170.923110
 31
0.0
  0
LINE
  8
7
 10
831.543070
 20
175.346010
 30
0.0
 11
833.617537
 21
175.346010
 31
0.0
  0
LINE
  8
7
 10
832.454387
 20
170.919170
 30
0.0
 11
831.543070
 21
175.346010
 31
0.0
  0
LINE
  8
7
 10
834.528855
 20
170.919170
 30
0.0
 11
833.617537
 21
175.346010
 31
0.0
  0
LINE
  8
7
 10
832.454387
 20
170.919170
 30
0.0
 11
839.796072
 21
170.919170
 31
0.0
  0
LINE
  8
7
 10
830.945355
 20
168.338890
 30
0.0
 11
830.945355
 21
184.838890
 31
0.0
  0
LINE
  8
7
 10
829.446384
 20
168.338890
 30
0.0
 11
829.446384
 21
184.838890
 31
0.0
  0
LINE
  8
7
 10
827.914295
 20
168.338890
 30
0.0
 11
827.914295
 21
184.838890
 31
0.0
  0
LINE
  8
7
 10
839.790867
 20
179.772850
 30
0.0
 11
840.717293
 21
175.333540
 31
0.0
  0
LINE
  8
7
 10
831.934976
 20
179.575530
 30
0.0
 11
831.453611
 21
179.100240
 31
0.0
  0
LINE
  8
7
 10
832.439745
 20
179.772850
 30
0.0
 11
831.543070
 21
175.346010
 31
0.0
  0
LINE
  8
7
 10
834.514824
 20
179.772850
 30
0.0
 11
833.618149
 21
175.346010
 31
0.0
  0
LINE
  8
7
 10
819.373854
 20
180.220890
 30
0.0
 11
818.964439
 21
180.220890
 31
0.0
  0
LINE
  8
7
 10
818.964439
 20
180.220890
 30
0.0
 11
818.964439
 21
181.520890
 31
0.0
  0
LINE
  8
7
 10
819.373854
 20
179.772740
 30
0.0
 11
819.373854
 21
180.220890
 31
0.0
  0
LINE
  8
7
 10
816.153154
 20
179.772740
 30
0.0
 11
815.463622
 21
180.231550
 31
0.0
  0
LINE
  8
7
 10
815.463622
 20
180.231550
 30
0.0
 11
814.718598
 21
180.511790
 31
0.0
  0
LINE
  8
7
 10
814.718598
 20
180.511790
 30
0.0
 11
813.945677
 21
180.603080
 31
0.0
  0
LINE
  8
7
 10
814.843196
 20
179.772740
 30
0.0
 11
814.299634
 21
179.998760
 31
0.0
  0
LINE
  8
7
 10
814.299634
 20
179.998760
 30
0.0
 11
813.738642
 21
180.060690
 31
0.0
  0
LINE
  8
7
 10
820.393871
 20
179.772740
 30
0.0
 11
813.389216
 21
179.772740
 31
0.0
  0
ARC
  8
7
 10
809.417293
 20
214.338890
 30
0.0
 40
1.000000
 50
180.000000
 51
270.000000
  0
LINE
  8
7
 10
812.417293
 20
210.738890
 30
0.0
 11
809.417293
 21
210.738890
 31
0.0
  0
LINE
  8
7
 10
812.417293
 20
206.838890
 30
0.0
 11
812.417293
 21
213.338890
 31
0.0
  0
ARC
  8
7
 10
809.417293
 20
214.338890
 30
0.0
 40
3.600000
 50
180.000000
 51
270.000000
  0
LINE
  8
7
 10
813.173488
 20
180.502030
 30
0.0
 11
812.430634
 21
180.212400
 31
0.0
  0
LINE
  8
7
 10
812.430634
 20
180.212400
 30
0.0
 11
811.744629
 21
179.744910
 31
0.0
  0
LINE
  8
7
 10
813.180217
 20
179.956350
 30
0.0
 11
812.644264
 21
179.689440
 31
0.0
  0
LINE
  8
7
 10
812.644264
 20
179.689440
 30
0.0
 11
812.149888
 21
179.269480
 31
0.0
  0
LINE
  8
7
 10
809.436998
 20
180.220890
 30
0.0
 11
809.846413
 21
180.220890
 31
0.0
  0
LINE
  8
7
 10
809.846413
 20
180.220890
 30
0.0
 11
809.846413
 21
181.520890
 31
0.0
  0
LINE
  8
7
 10
809.846413
 20
181.520890
 30
0.0
 11
818.964439
 21
181.520890
 31
0.0
  0
LINE
  8
7
 10
813.945677
 20
180.603080
 30
0.0
 11
813.173488
 21
180.502030
 31
0.0
  0
LINE
  8
7
 10
813.738642
 20
180.060690
 30
0.0
 11
813.180217
 21
179.956350
 31
0.0
  0
ARC
  8
7
 10
813.917293
 20
206.838890
 30
0.0
 40
1.500000
 50
180.000000
 51
270.000000
  0
LINE
  8
7
 10
820.399075
 20
170.919070
 30
0.0
 11
821.320297
 21
175.333440
 31
0.0
  0
LINE
  8
7
 10
821.579571
 20
178.338890
 30
0.0
 11
824.612941
 21
178.338890
 31
0.0
  0
LINE
  8
7
 10
824.612941
 20
168.338890
 30
0.0
 11
824.612941
 21
178.338890
 31
0.0
  0
LINE
  8
7
 10
821.579571
 20
168.338890
 30
0.0
 11
821.579571
 21
178.338890
 31
0.0
  0
LINE
  8
7
 10
822.263612
 20
168.338890
 30
0.0
 11
822.263612
 21
178.338890
 31
0.0
  0
LINE
  8
7
 10
819.086131
 20
175.024310
 30
0.0
 11
818.077818
 21
175.024310
 31
0.0
  0
LINE
  8
7
 10
819.086131
 20
175.644810
 30
0.0
 11
818.077818
 21
175.644810
 31
0.0
  0
LINE
  8
7
 10
818.077818
 20
175.024310
 30
0.0
 11
818.077818
 21
173.395500
 31
0.0
  0
LINE
  8
7
 10
818.077818
 20
177.170210
 30
0.0
 11
818.077818
 21
175.644810
 31
0.0
  0
LINE
  8
7
 10
817.690005
 20
173.395500
 30
0.0
 11
818.077818
 21
173.395500
 31
0.0
  0
LINE
  8
7
 10
819.086131
 20
175.644810
 30
0.0
 11
819.086131
 21
175.024310
 31
0.0
  0
LINE
  8
7
 10
817.690005
 20
175.024310
 30
0.0
 11
817.690005
 21
173.395500
 31
0.0
  0
LINE
  8
7
 10
817.690005
 20
177.170210
 30
0.0
 11
817.690005
 21
175.644810
 31
0.0
  0
LINE
  8
7
 10
818.077818
 20
177.170210
 30
0.0
 11
817.690005
 21
177.170210
 31
0.0
  0
LINE
  8
7
 10
815.017689
 20
170.919070
 30
0.0
 11
813.698981
 21
175.333440
 31
0.0
  0
LINE
  8
7
 10
813.753452
 20
170.225170
 30
0.0
 11
814.528874
 21
170.268910
 31
0.0
  0
LINE
  8
7
 10
814.528874
 20
170.268910
 30
0.0
 11
815.283427
 21
170.503110
 31
0.0
  0
LINE
  8
7
 10
815.283427
 20
170.503110
 30
0.0
 11
815.989162
 21
170.919070
 31
0.0
  0
LINE
  8
7
 10
813.536667
 20
170.749240
 30
0.0
 11
814.099049
 21
170.751380
 31
0.0
  0
LINE
  8
7
 10
814.099049
 20
170.751380
 30
0.0
 11
814.651151
 21
170.919070
 31
0.0
  0
LINE
  8
7
 10
817.690005
 20
175.024310
 30
0.0
 11
816.552422
 21
175.024310
 31
0.0
  0
LINE
  8
7
 10
817.690005
 20
175.644810
 30
0.0
 11
816.552422
 21
175.644810
 31
0.0
  0
LINE
  8
7
 10
816.552422
 20
175.024310
 30
0.0
 11
816.552422
 21
175.644810
 31
0.0
  0
LINE
  8
7
 10
819.373854
 20
168.338890
 30
0.0
 11
819.373854
 21
170.919070
 31
0.0
  0
LINE
  8
7
 10
820.399075
 20
170.919070
 30
0.0
 11
813.397105
 21
170.919070
 31
0.0
  0
LINE
  8
7
 10
810.641761
 20
178.351560
 30
0.0
 11
810.265747
 21
177.477310
 31
0.0
  0
LINE
  8
7
 10
810.193434
 20
173.573250
 30
0.0
 11
810.536652
 21
172.676910
 31
0.0
  0
LINE
  8
7
 10
810.536652
 20
172.676910
 30
0.0
 11
811.006873
 21
171.881830
 31
0.0
  0
LINE
  8
7
 10
811.006873
 20
171.881830
 30
0.0
 11
811.586679
 21
171.217450
 31
0.0
  0
LINE
  8
7
 10
811.586679
 20
171.217450
 30
0.0
 11
812.254596
 21
170.708390
 31
0.0
  0
LINE
  8
7
 10
812.254596
 20
170.708390
 30
0.0
 11
812.985882
 21
170.373490
 31
0.0
  0
LINE
  8
7
 10
812.800282
 20
178.600420
 30
0.0
 11
812.481638
 21
178.044390
 31
0.0
  0
LINE
  8
7
 10
812.481638
 20
178.044390
 30
0.0
 11
812.229794
 21
177.397100
 31
0.0
  0
LINE
  8
7
 10
812.229794
 20
177.397100
 30
0.0
 11
812.053617
 21
176.681320
 31
0.0
  0
LINE
  8
7
 10
812.053617
 20
176.681320
 30
0.0
 11
811.959312
 21
175.922270
 31
0.0
  0
LINE
  8
7
 10
811.959312
 20
175.922270
 30
0.0
 11
811.950198
 21
175.146670
 31
0.0
  0
LINE
  8
7
 10
811.950198
 20
175.146670
 30
0.0
 11
812.026598
 21
174.381840
 31
0.0
  0
LINE
  8
7
 10
812.026598
 20
174.381840
 30
0.0
 11
812.185821
 21
173.654700
 31
0.0
  0
LINE
  8
7
 10
812.185821
 20
173.654700
 30
0.0
 11
812.422259
 21
172.990870
 31
0.0
  0
LINE
  8
7
 10
812.422259
 20
172.990870
 30
0.0
 11
812.727588
 21
172.413720
 31
0.0
  0
LINE
  8
7
 10
812.727588
 20
172.413720
 30
0.0
 11
813.091055
 21
171.943570
 31
0.0
  0
LINE
  8
7
 10
811.714711
 20
178.711440
 30
0.0
 11
811.354244
 21
178.035210
 31
0.0
  0
LINE
  8
7
 10
811.354244
 20
178.035210
 30
0.0
 11
811.081337
 21
177.264900
 31
0.0
  0
LINE
  8
7
 10
811.081337
 20
177.264900
 30
0.0
 11
810.905718
 21
176.427960
 31
0.0
  0
LINE
  8
7
 10
810.905718
 20
176.427960
 30
0.0
 11
810.833646
 21
175.554230
 31
0.0
  0
LINE
  8
7
 10
810.833646
 20
175.554230
 30
0.0
 11
810.867691
 21
174.674850
 31
0.0
  0
LINE
  8
7
 10
810.867691
 20
174.674850
 30
0.0
 11
811.006639
 21
173.821160
 31
0.0
  0
LINE
  8
7
 10
811.006639
 20
173.821160
 30
0.0
 11
811.245538
 21
173.023610
 31
0.0
  0
LINE
  8
7
 10
811.245538
 20
173.023610
 30
0.0
 11
811.575870
 21
172.310610
 31
0.0
  0
LINE
  8
7
 10
811.575870
 20
172.310610
 30
0.0
 11
811.985863
 21
171.707580
 31
0.0
  0
LINE
  8
7
 10
811.985863
 20
171.707580
 30
0.0
 11
812.460901
 21
171.236020
 31
0.0
  0
LINE
  8
7
 10
812.460901
 20
171.236020
 30
0.0
 11
812.984052
 21
170.912730
 31
0.0
  0
LINE
  8
7
 10
810.265747
 20
177.477310
 30
0.0
 11
810.026770
 21
176.526500
 31
0.0
  0
LINE
  8
7
 10
810.026770
 20
176.526500
 30
0.0
 11
809.933683
 21
175.534370
 31
0.0
  0
LINE
  8
7
 10
809.933683
 20
175.534370
 30
0.0
 11
809.989932
 21
174.537640
 31
0.0
  0
LINE
  8
7
 10
809.989932
 20
174.537640
 30
0.0
 11
810.193434
 21
173.573250
 31
0.0
  0
LINE
  8
7
 10
812.985882
 20
170.373490
 30
0.0
 11
813.753452
 21
170.225170
 31
0.0
  0
LINE
  8
7
 10
812.984052
 20
170.912730
 30
0.0
 11
813.536667
 21
170.749240
 31
0.0
  0
LINE
  8
7
 10
812.078397
 20
175.333440
 30
0.0
 11
813.698981
 21
175.333440
 31
0.0
  0
LINE
  8
7
 10
813.397105
 20
170.919070
 30
0.0
 11
812.078397
 21
175.333440
 31
0.0
  0
LINE
  8
7
 62
     4
  6
DASHED
 10
807.817293
 20
210.338890
 30
0.0
 11
807.817293
 21
165.338890
 31
0.0
  0
LINE
  8
7
 10
809.436998
 20
168.338890
 30
0.0
 11
809.436998
 21
180.220890
 31
0.0
  0
LINE
  8
7
 10
824.072997
 20
184.838890
 30
0.0
 11
824.072997
 21
178.338890
 31
0.0
  0
LINE
  8
7
 10
808.564828
 20
168.338890
 30
0.0
 11
808.564828
 21
184.838890
 31
0.0
  0
LINE
  8
7
 10
805.717975
 20
165.338890
 30
0.0
 11
805.717975
 21
184.838890
 31
0.0
  0
LINE
  8
7
 10
815.009800
 20
179.772740
 30
0.0
 11
813.698981
 21
175.333440
 31
0.0
  0
LINE
  8
7
 10
820.393871
 20
179.772740
 30
0.0
 11
821.320297
 21
175.333440
 31
0.0
  0
LINE
  8
7
 10
811.744629
 20
179.744910
 30
0.0
 11
811.140884
 21
179.116880
 31
0.0
  0
LINE
  8
7
 10
811.140884
 20
179.116880
 30
0.0
 11
810.641761
 21
178.351560
 31
0.0
  0
LINE
  8
7
 10
813.174504
 20
179.045590
 30
0.0
 11
812.800282
 21
178.600420
 31
0.0
  0
LINE
  8
7
 10
812.149888
 20
179.269480
 30
0.0
 11
811.714711
 21
178.711440
 31
0.0
  0
LINE
  8
7
 10
813.389216
 20
179.772740
 30
0.0
 11
812.078397
 21
175.333440
 31
0.0
  0
LINE
  8
7
 10
838.111458
 20
168.338890
 30
0.0
 11
805.717975
 21
168.338890
 31
0.0
  0
LINE
  8
7
 10
805.717975
 20
184.838890
 30
0.0
 11
837.111458
 21
184.838890
 31
0.0
  0
POINT
  8
7
 10
822.317293
 20
165.338890
 30
0.0
  0
LINE
  8
7
 10
817.317293
 20
164.338890
 30
0.0
 11
817.717292
 21
164.338890
 31
0.0
  0
LINE
  8
7
 10
817.317293
 20
165.338890
 30
0.0
 11
817.317293
 21
164.338890
 31
0.0
  0
LINE
  8
7
 10
827.317293
 20
165.338890
 30
0.0
 11
817.317293
 21
165.338890
 31
0.0
  0
LINE
  8
7
 10
827.317293
 20
164.338890
 30
0.0
 11
827.317293
 21
165.338890
 31
0.0
  0
LINE
  8
7
 10
826.917293
 20
164.338890
 30
0.0
 11
827.317293
 21
164.338890
 31
0.0
  0
ARC
  8
7
 10
818.867294
 20
162.192027
 30
0.0
 40
1.853133
 50
270.0
 51
308.357670
  0
ARC
  8
7
 10
822.317293
 20
167.151390
 30
0.0
 40
6.812498
 50
250.268330
 51
289.731580
  0
ARC
  8
7
 10
825.767292
 20
162.192028
 30
0.0
 40
1.853135
 50
231.642265
 51
270.0
  0
LINE
  8
7
 10
820.017293
 20
160.738891
 30
0.0
 11
820.017293
 21
164.338890
 31
0.0
  0
LINE
  8
7
 10
824.617293
 20
160.738891
 30
0.0
 11
824.617293
 21
164.338890
 31
0.0
  0
LINE
  8
7
 10
826.917292
 20
160.738891
 30
0.0
 11
826.917292
 21
164.338889
 31
0.0
  0
LINE
  8
7
 10
826.217288
 20
160.338897
 30
0.0
 11
826.917287
 21
160.738897
 31
0.0
  0
LINE
  8
7
 10
818.417294
 20
160.338890
 30
0.0
 11
826.217292
 21
160.338890
 31
0.0
  0
LINE
  8
7
 10
817.717298
 20
160.738897
 30
0.0
 11
818.417298
 21
160.338897
 31
0.0
  0
LINE
  8
7
 10
817.717293
 20
164.338891
 30
0.0
 11
817.717293
 21
160.738891
 31
0.0
  0
LINE
  8
7
 10
826.917293
 20
164.338890
 30
0.0
 11
817.717292
 21
164.338890
 31
0.0
  0
LINE
  8
7
 10
821.566740
 20
215.438889
 30
0.0
 11
822.317293
 21
214.138891
 31
0.0
  0
LINE
  8
7
 10
822.317293
 20
215.438889
 30
0.0
 11
823.067845
 21
214.138891
 31
0.0
  0
LINE
  8
7
 10
817.317293
 20
213.338890
 30
0.0
 11
817.317293
 21
214.138891
 31
0.0
  0
LINE
  8
7
 10
827.317293
 20
214.138891
 30
0.0
 11
827.317293
 21
213.338890
 31
0.0
  0
LINE
  8
7
 10
817.317293
 20
213.338890
 30
0.0
 11
822.317293
 21
213.338890
 31
0.0
  0
LINE
  8
7
 10
827.317293
 20
214.138891
 30
0.0
 11
817.317293
 21
214.138891
 31
0.0
  0
LINE
  8
7
 10
822.317293
 20
213.338890
 30
0.0
 11
827.317293
 21
213.338890
 31
0.0
  0
POINT
  8
7
 10
822.317293
 20
213.338890
 30
0.0
  0
LINE
  8
7
 10
818.142295
 20
214.138891
 30
0.0
 11
818.142295
 21
215.438890
 31
0.0
  0
LINE
  8
7
 10
826.492291
 20
214.138891
 30
0.0
 11
826.492291
 21
215.438890
 31
0.0
  0
ARC
  8
7
 10
819.417292
 20
216.726384
 30
0.0
 40
1.599999
 50
106.191280
 51
180.0
  0
ARC
  8
7
 10
825.217293
 20
216.726384
 30
0.0
 40
1.599999
 50
0.0
 51
73.808590
  0
LINE
  8
7
 10
817.817293
 20
215.438890
 30
0.0
 11
817.817293
 21
216.726384
 31
0.0
  0
LINE
  8
7
 10
826.817293
 20
215.438890
 30
0.0
 11
826.817293
 21
216.726384
 31
0.0
  0
LINE
  8
7
 10
817.817293
 20
215.438890
 30
0.0
 11
826.817293
 21
215.438890
 31
0.0
  0
POINT
  8
7
 10
822.317293
 20
213.338890
 30
0.0
  0
ARC
  8
7
 10
822.317293
 20
206.738891
 30
0.0
 40
12.0
 50
73.808650
 51
106.191340
  0
LINE
  8
7
 10
813.917293
 20
205.338890
 30
0.0
 11
830.817293
 21
205.338890
 31
0.0
  0
LINE
  8
7
 10
832.317293
 20
213.338890
 30
0.0
 11
809.417293
 21
213.338890
 31
0.0
  0
POINT
  8
7
 10
840.717292
 20
175.333544
 30
0.0
  0
POINT
  8
7
 10
831.317294
 20
165.338900
 30
0.0
  0
LINE
  8
7
 10
805.817293
 20
238.838890
 30
0.0
 11
805.817293
 21
214.338890
 31
0.0
  0
LINE
  8
7
 10
808.417293
 20
214.338890
 30
0.0
 11
808.417293
 21
238.838890
 31
0.0
  0
POINT
  8
7
 10
832.317300
 20
213.338892
 30
0.0
  0
LINE
  8
7
 10
795.817293
 20
238.838890
 30
0.0
 11
793.217292
 21
238.838890
 31
0.0
  0
POINT
  8
7
 10
793.217293
 20
225.338890
 30
0.0
  0
LINE
  8
7
 10
790.117294
 20
222.463891
 30
0.0
 11
785.617294
 21
222.463891
 31
0.0
  0
LINE
  8
7
 10
791.617294
 20
219.588890
 30
0.0
 11
791.617294
 21
219.238891
 31
0.0
  0
LINE
  8
7
 10
793.217293
 20
219.588890
 30
0.0
 11
791.617294
 21
219.588890
 31
0.0
  0
LINE
  8
7
 10
793.217293
 20
231.088889
 30
0.0
 11
793.217293
 21
219.588891
 31
0.0
  0
LINE
  8
7
 10
791.617294
 20
231.088890
 30
0.0
 11
793.217293
 21
231.088890
 31
0.0
  0
LINE
  8
7
 10
791.617294
 20
224.838890
 30
0.0
 11
790.117294
 21
225.338890
 31
0.0
  0
LINE
  8
7
 10
791.617293
 20
225.338890
 30
0.0
 11
790.117295
 21
225.838890
 31
0.0
  0
LINE
  8
7
 10
790.117294
 20
219.238890
 30
0.0
 11
790.117294
 21
219.588890
 31
0.0
  0
LINE
  8
7
 10
791.617294
 20
219.238890
 30
0.0
 11
790.117294
 21
219.238890
 31
0.0
  0
LINE
  8
7
 10
791.617292
 20
231.438890
 30
0.0
 11
791.617292
 21
219.238891
 31
0.0
  0
LINE
  8
7
 10
790.117294
 20
231.438891
 30
0.0
 11
791.617294
 21
231.438891
 31
0.0
  0
LINE
  8
7
 10
790.117294
 20
231.088890
 30
0.0
 11
790.117294
 21
231.438891
 31
0.0
  0
LINE
  8
7
 10
790.117294
 20
228.213890
 30
0.0
 11
785.617294
 21
228.213890
 31
0.0
  0
LINE
  8
7
 10
785.617294
 20
231.088890
 30
0.0
 11
790.117294
 21
231.088890
 31
0.0
  0
LINE
  8
7
 10
785.117284
 20
230.238895
 30
0.0
 11
785.617284
 21
231.088895
 31
0.0
  0
LINE
  8
7
 10
785.117297
 20
220.438892
 30
0.0
 11
785.117297
 21
230.238889
 31
0.0
  0
LINE
  8
7
 10
785.617284
 20
219.588886
 30
0.0
 11
785.117284
 21
220.438886
 31
0.0
  0
LINE
  8
7
 10
790.117294
 20
219.588890
 30
0.0
 11
785.617294
 21
219.588890
 31
0.0
  0
LINE
  8
7
 10
790.117294
 20
231.088889
 30
0.0
 11
790.117294
 21
219.588891
 31
0.0
  0
LINE
  8
7
 10
789.217292
 20
210.738890
 30
0.0
 11
792.217292
 21
210.738890
 31
0.0
  0
ARC
  8
7
 10
787.717292
 20
206.838890
 30
0.0
 40
1.500000
 50
270.000000
 51
360.000000
  0
LINE
  8
7
 10
789.217292
 20
206.838890
 30
0.0
 11
789.217292
 21
213.338890
 31
0.0
  0
ARC
  8
7
 10
792.217292
 20
214.338890
 30
0.0
 40
1.000000
 50
270.000000
 51
360.000000
  0
ARC
  8
7
 10
792.217293
 20
214.338891
 30
0.0
 40
3.600000
 50
269.999997
 51
359.999997
  0
LINE
  8
7
 10
780.067845
 20
215.438889
 30
0.0
 11
779.317292
 21
214.138891
 31
0.0
  0
LINE
  8
7
 10
779.317292
 20
215.438889
 30
0.0
 11
778.566740
 21
214.138891
 31
0.0
  0
LINE
  8
7
 10
784.317292
 20
213.338890
 30
0.0
 11
784.317292
 21
214.138891
 31
0.0
  0
LINE
  8
7
 10
774.317292
 20
214.138891
 30
0.0
 11
774.317292
 21
213.338890
 31
0.0
  0
LINE
  8
7
 10
784.317292
 20
213.338890
 30
0.0
 11
779.317292
 21
213.338890
 31
0.0
  0
LINE
  8
7
 10
774.317292
 20
214.138891
 30
0.0
 11
784.317292
 21
214.138891
 31
0.0
  0
LINE
  8
7
 10
779.317292
 20
213.338890
 30
0.0
 11
774.317292
 21
213.338890
 31
0.0
  0
POINT
  8
7
 10
779.317292
 20
213.338890
 30
0.0
  0
LINE
  8
7
 10
783.492291
 20
214.138891
 30
0.0
 11
783.492291
 21
215.438890
 31
0.0
  0
LINE
  8
7
 10
775.142294
 20
214.138891
 30
0.0
 11
775.142294
 21
215.438890
 31
0.0
  0
LINE
  8
7
 10
783.817292
 20
215.438890
 30
0.0
 11
783.817292
 21
216.726384
 31
0.0
  0
LINE
  8
7
 10
774.817292
 20
215.438890
 30
0.0
 11
774.817292
 21
216.726384
 31
0.0
  0
LINE
  8
7
 10
783.817292
 20
215.438890
 30
0.0
 11
774.817292
 21
215.438890
 31
0.0
  0
POINT
  8
7
 10
779.317292
 20
213.338890
 30
0.0
  0
LINE
  8
7
 10
783.317292
 20
174.838890
 30
0.0
 11
783.317292
 21
165.338890
 31
0.0
  0
POINT
  8
7
 10
779.317292
 20
165.338890
 30
0.0
  0
LINE
  8
7
 10
784.317292
 20
164.338890
 30
0.0
 11
783.917293
 21
164.338890
 31
0.0
  0
LINE
  8
7
 10
784.317292
 20
165.338890
 30
0.0
 11
784.317292
 21
164.338890
 31
0.0
  0
LINE
  8
7
 10
774.317292
 20
165.338890
 30
0.0
 11
784.317292
 21
165.338890
 31
0.0
  0
LINE
  8
7
 10
774.317292
 20
164.338890
 30
0.0
 11
774.317292
 21
165.338890
 31
0.0
  0
LINE
  8
7
 10
774.717292
 20
164.338890
 30
0.0
 11
774.317292
 21
164.338890
 31
0.0
  0
LINE
  8
7
 10
781.617293
 20
160.738891
 30
0.0
 11
781.617293
 21
164.338890
 31
0.0
  0
LINE
  8
7
 10
777.017292
 20
160.738891
 30
0.0
 11
777.017292
 21
164.338890
 31
0.0
  0
LINE
  8
7
 10
774.717293
 20
160.738891
 30
0.0
 11
774.717293
 21
164.338889
 31
0.0
  0
LINE
  8
7
 10
775.417298
 20
160.338897
 30
0.0
 11
774.717298
 21
160.738897
 31
0.0
  0
LINE
  8
7
 10
783.217291
 20
160.338890
 30
0.0
 11
775.417294
 21
160.338890
 31
0.0
  0
LINE
  8
7
 10
783.917287
 20
160.738897
 30
0.0
 11
783.217287
 21
160.338897
 31
0.0
  0
LINE
  8
7
 10
783.917292
 20
164.338891
 30
0.0
 11
783.917292
 21
160.738891
 31
0.0
  0
LINE
  8
7
 10
774.717292
 20
164.338890
 30
0.0
 11
783.917293
 21
164.338890
 31
0.0
  0
LINE
  8
7
 62
     4
  6
DASHED
 10
793.817293
 20
210.338890
 30
0.0
 11
793.817293
 21
165.338890
 31
0.0
  0
ARC
  8
7
 10
770.717293
 20
206.838890
 30
0.0
 40
1.500000
 50
180.000000
 51
270.000000
  0
LINE
  8
7
 10
769.217293
 20
206.838890
 30
0.0
 11
769.217293
 21
213.338890
 31
0.0
  0
LINE
  8
7
 10
770.317293
 20
167.838890
 30
0.0
 11
770.317293
 21
205.338890
 31
0.0
  0
LINE
  8
7
 10
770.317293
 20
174.838890
 30
0.0
 11
783.317292
 21
174.838890
 31
0.0
  0
ARC
  8
7
 10
772.817293
 20
167.838890
 30
0.0
 40
2.500000
 50
180.000000
 51
270.000000
  0
LINE
  8
7
 10
787.717292
 20
205.338890
 30
0.0
 11
770.717293
 21
205.338890
 31
0.0
  0
LINE
  8
7
 10
769.217293
 20
213.338890
 30
0.0
 11
792.217292
 21
213.338890
 31
0.0
  0
POINT
  8
7
 10
772.817290
 20
165.338903
 30
0.0
  0
POINT
  8
7
 10
776.817290
 20
158.338903
 30
0.0
  0
LINE
  8
7
 10
793.217292
 20
214.338890
 30
0.0
 11
793.217292
 21
238.838890
 31
0.0
  0
LINE
  8
7
 10
795.817293
 20
238.838890
 30
0.0
 11
795.817293
 21
214.338890
 31
0.0
  0
POINT
  8
7
 10
793.217284
 20
238.838890
 30
0.0
  0
POINT
  8
7
 10
772.817290
 20
165.338898
 30
0.0
  0
LINE
  8
7
 10
772.817293
 20
165.338890
 30
0.0
 11
837.111458
 21
165.338890
 31
0.0
  0
LINE
  8
7
 10
789.217292
 20
210.338890
 30
0.0
 11
812.417293
 21
210.338890
 31
0.0
  0
LINE
  8
7
 10
795.817293
 20
222.338890
 30
0.0
 11
805.817293
 21
222.338890
 31
0.0
  0
LINE
  8
7
 10
795.817293
 20
228.338890
 30
0.0
 11
805.817293
 21
228.338890
 31
0.0
  0
POINT
  8
7
 10
770.317290
 20
167.838900
 30
0.0
  0
POINT
  8
7
 10
831.317294
 20
165.338900
 30
0.0
  0
LINE
  8
7
 10
934.270722
 20
168.738890
 30
0.0
 11
955.130542
 21
168.738890
 31
0.0
  0
ARC
  8
7
 10
937.487462
 20
178.238890
 30
0.0
 40
0.500000
 50
90.000000
 51
180.000000
  0
LINE
  8
7
 10
934.270722
 20
178.738890
 30
0.0
 11
939.632342
 21
178.738890
 31
0.0
  0
LINE
  8
7
 10
936.987462
 20
168.738890
 30
0.0
 11
936.987462
 21
178.238890
 31
0.0
  0
LINE
  8
7
 10
934.270722
 20
185.238890
 30
0.0
 11
961.174572
 21
185.238890
 31
0.0
  0
LINE
  8
7
 10
936.333802
 20
171.234050
 30
0.0
 11
936.625802
 21
171.834540
 31
0.0
  0
LINE
  8
7
 10
936.625802
 20
171.834540
 30
0.0
 11
936.846302
 21
172.517350
 31
0.0
  0
LINE
  8
7
 10
936.846302
 20
172.517350
 30
0.0
 11
936.987462
 21
173.258240
 31
0.0
  0
LINE
  8
7
 10
936.516972
 20
169.929310
 30
0.0
 11
936.987462
 21
170.390820
 31
0.0
  0
LINE
  8
7
 10
936.987462
 20
177.804740
 30
0.0
 11
936.511552
 21
178.270520
 31
0.0
  0
LINE
  8
7
 10
936.013822
 20
178.462300
 30
0.0
 11
936.910502
 21
174.035460
 31
0.0
  0
LINE
  8
7
 10
935.999182
 20
169.608620
 30
0.0
 11
936.910502
 21
174.035460
 31
0.0
  0
LINE
  8
7
 10
936.987462
 20
175.050580
 30
0.0
 11
936.882032
 21
175.642930
 31
0.0
  0
LINE
  8
7
 10
936.882032
 20
175.642930
 30
0.0
 11
936.725712
 21
176.201930
 31
0.0
  0
LINE
  8
7
 10
936.725712
 20
176.201930
 30
0.0
 11
936.521982
 21
176.715050
 31
0.0
  0
LINE
  8
7
 10
936.910502
 20
174.035460
 30
0.0
 11
933.836032
 21
174.035460
 31
0.0
  0
POINT
  8
7
 10
939.060680
 20
210.338886
 30
0.0
  0
POINT
  8
7
 10
929.563278
 20
174.022988
 30
0.0
  0
POLYLINE
  8
0
 66
     1
 70
     0
  0
VERTEX
  8
0
 10
959.310682
 20
249.902570
 30
0.0
  0
VERTEX
  8
0
 10
960.544582
 20
250.529346
 30
0.0
  0
VERTEX
  8
0
 10
961.788990
 20
251.142050
 30
0.0
  0
VERTEX
  8
0
 10
963.054414
 20
251.726607
 30
0.0
  0
VERTEX
  8
0
 10
964.351360
 20
252.268945
 30
0.0
  0
VERTEX
  8
0
 10
965.690338
 20
252.754991
 30
0.0
  0
VERTEX
  8
0
 10
967.081854
 20
253.170673
 30
0.0
  0
VERTEX
  8
0
 10
968.536415
 20
253.501917
 30
0.0
  0
VERTEX
  8
0
 10
970.064531
 20
253.734650
 30
0.0
  0
VERTEX
  8
0
 10
971.676708
 20
253.854799
 30
0.0
  0
VERTEX
  8
0
 10
973.383455
 20
253.848292
 30
0.0
  0
VERTEX
  8
0
 10
975.195278
 20
253.701055
 30
0.0
  0
VERTEX
  8
0
 10
977.116850
 20
253.405798
 30
0.0
  0
VERTEX
  8
0
 10
979.129501
 20
252.982359
 30
0.0
  0
VERTEX
  8
0
 10
981.208723
 20
252.457359
 30
0.0
  0
VERTEX
  8
0
 10
983.330010
 20
251.857419
 30
0.0
  0
VERTEX
  8
0
 10
985.468856
 20
251.209160
 30
0.0
  0
VERTEX
  8
0
 10
987.600754
 20
250.539203
 30
0.0
  0
VERTEX
  8
0
 10
989.701197
 20
249.874168
 30
0.0
  0
VERTEX
  8
0
 10
991.745680
 20
249.240676
 30
0.0
  0
VERTEX
  8
0
 10
993.709696
 20
248.665348
 30
0.0
  0
VERTEX
  8
0
 10
995.568738
 20
248.174805
 30
0.0
  0
VERTEX
  8
0
 10
997.298299
 20
247.795668
 30
0.0
  0
VERTEX
  8
0
 10
998.880292
 20
247.548029
 30
0.0
  0
VERTEX
  8
0
 10
1000.322296
 20
247.425869
 30
0.0
  0
VERTEX
  8
0
 10
1001.638312
 20
247.416640
 30
0.0
  0
VERTEX
  8
0
 10
1002.842337
 20
247.507793
 30
0.0
  0
VERTEX
  8
0
 10
1003.948370
 20
247.686782
 30
0.0
  0
VERTEX
  8
0
 10
1004.970411
 20
247.941058
 30
0.0
  0
VERTEX
  8
0
 10
1005.922458
 20
248.258073
 30
0.0
  0
VERTEX
  8
0
 10
1006.818510
 20
248.625280
 30
0.0
  0
VERTEX
  8
0
 10
1007.672565
 20
249.030130
 30
0.0
  0
VERTEX
  8
0
 10
1008.498623
 20
249.460076
 30
0.0
  0
VERTEX
  8
0
 10
1009.310682
 20
249.902570
 30
0.0
  0
SEQEND
  8
0
  0
POLYLINE
  8
0
 66
     1
 70
     0
  0
VERTEX
  8
0
 10
959.310682
 20
147.141110
 30
0.0
  0
VERTEX
  8
0
 10
960.544582
 20
147.767886
 30
0.0
  0
VERTEX
  8
0
 10
961.788990
 20
148.380590
 30
0.0
  0
VERTEX
  8
0
 10
963.054414
 20
148.965147
 30
0.0
  0
VERTEX
  8
0
 10
964.351360
 20
149.507485
 30
0.0
  0
VERTEX
  8
0
 10
965.690338
 20
149.993531
 30
0.0
  0
VERTEX
  8
0
 10
967.081854
 20
150.409213
 30
0.0
  0
VERTEX
  8
0
 10
968.536415
 20
150.740457
 30
0.0
  0
VERTEX
  8
0
 10
970.064531
 20
150.973190
 30
0.0
  0
VERTEX
  8
0
 10
971.676708
 20
151.093339
 30
0.0
  0
VERTEX
  8
0
 10
973.383455
 20
151.086832
 30
0.0
  0
VERTEX
  8
0
 10
975.195278
 20
150.939595
 30
0.0
  0
VERTEX
  8
0
 10
977.116850
 20
150.644338
 30
0.0
  0
VERTEX
  8
0
 10
979.129501
 20
150.220899
 30
0.0
  0
VERTEX
  8
0
 10
981.208723
 20
149.695899
 30
0.0
  0
VERTEX
  8
0
 10
983.330010
 20
149.095959
 30
0.0
  0
VERTEX
  8
0
 10
985.468856
 20
148.447700
 30
0.0
  0
VERTEX
  8
0
 10
987.600754
 20
147.777743
 30
0.0
  0
VERTEX
  8
0
 10
989.701197
 20
147.112708
 30
0.0
  0
VERTEX
  8
0
 10
991.745680
 20
146.479216
 30
0.0
  0
VERTEX
  8
0
 10
993.709696
 20
145.903888
 30
0.0
  0
VERTEX
  8
0
 10
995.568738
 20
145.413345
 30
0.0
  0
VERTEX
  8
0
 10
997.298299
 20
145.034208
 30
0.0
  0
VERTEX
  8
0
 10
998.880292
 20
144.786569
 30
0.0
  0
VERTEX
  8
0
 10
1000.322296
 20
144.664409
 30
0.0
  0
VERTEX
  8
0
 10
1001.638312
 20
144.655180
 30
0.0
  0
VERTEX
  8
0
 10
1002.842337
 20
144.746333
 30
0.0
  0
VERTEX
  8
0
 10
1003.948370
 20
144.925322
 30
0.0
  0
VERTEX
  8
0
 10
1004.970411
 20
145.179598
 30
0.0
  0
VERTEX
  8
0
 10
1005.922458
 20
145.496613
 30
0.0
  0
VERTEX
  8
0
 10
1006.818510
 20
145.863820
 30
0.0
  0
VERTEX
  8
0
 10
1007.672565
 20
146.268670
 30
0.0
  0
VERTEX
  8
0
 10
1008.498623
 20
146.698616
 30
0.0
  0
VERTEX
  8
0
 10
1009.310682
 20
147.141110
 30
0.0
  0
SEQEND
  8
0
  0
POLYLINE
  8
0
 66
     1
 70
     0
  0
VERTEX
  8
0
 10
795.817293
 20
253.591200
 30
0.0
  0
VERTEX
  8
0
 10
795.978188
 20
253.792087
 30
0.0
  0
VERTEX
  8
0
 10
796.142002
 20
253.988195
 30
0.0
  0
VERTEX
  8
0
 10
796.311652
 20
254.174748
 30
0.0
  0
VERTEX
  8
0
 10
796.490057
 20
254.346968
 30
0.0
  0
VERTEX
  8
0
 10
796.680135
 20
254.500076
 30
0.0
  0
VERTEX
  8
0
 10
796.884805
 20
254.629296
 30
0.0
  0
VERTEX
  8
0
 10
797.106984
 20
254.729850
 30
0.0
  0
VERTEX
  8
0
 10
797.349591
 20
254.796959
 30
0.0
  0
VERTEX
  8
0
 10
797.615544
 20
254.825847
 30
0.0
  0
VERTEX
  8
0
 10
797.907762
 20
254.811735
 30
0.0
  0
VERTEX
  8
0
 10
798.229163
 20
254.749845
 30
0.0
  0
VERTEX
  8
0
 10
798.581308
 20
254.637752
 30
0.0
  0
VERTEX
  8
0
 10
798.960336
 20
254.482437
 30
0.0
  0
VERTEX
  8
0
 10
799.361027
 20
254.293232
 30
0.0
  0
VERTEX
  8
0
 10
799.778163
 20
254.079470
 30
0.0
  0
VERTEX
  8
0
 10
800.206525
 20
253.850485
 30
0.0
  0
VERTEX
  8
0
 10
800.640895
 20
253.615609
 30
0.0
  0
VERTEX
  8
0
 10
801.076052
 20
253.384175
 30
0.0
  0
VERTEX
  8
0
 10
801.506780
 20
253.165515
 30
0.0
  0
VERTEX
  8
0
 10
801.927858
 20
252.968963
 30
0.0
  0
VERTEX
  8
0
 10
802.334069
 20
252.803851
 30
0.0
  0
VERTEX
  8
0
 10
802.720193
 20
252.679512
 30
0.0
  0
VERTEX
  8
0
 10
803.082264
 20
252.602965
 30
0.0
  0
VERTEX
  8
0
 10
803.421331
 20
252.571968
 30
0.0
  0
VERTEX
  8
0
 10
803.739693
 20
252.581967
 30
0.0
  0
VERTEX
  8
0
 10
804.039652
 20
252.628407
 30
0.0
  0
VERTEX
  8
0
 10
804.323507
 20
252.706733
 30
0.0
  0
VERTEX
  8
0
 10
804.593559
 20
252.812389
 30
0.0
  0
VERTEX
  8
0
 10
804.852109
 20
252.940821
 30
0.0
  0
VERTEX
  8
0
 10
805.101457
 20
253.087473
 30
0.0
  0
VERTEX
  8
0
 10
805.343903
 20
253.247790
 30
0.0
  0
VERTEX
  8
0
 10
805.581748
 20
253.417218
 30
0.0
  0
VERTEX
  8
0
 10
805.817293
 20
253.591200
 30
0.0
  0
SEQEND
  8
0
  0
POLYLINE
  8
0
 66
     1
 70
     0
  0
VERTEX
  8
0
 10
795.817293
 20
142.875680
 30
0.0
  0
VERTEX
  8
0
 10
795.978188
 20
143.076567
 30
0.0
  0
VERTEX
  8
0
 10
796.142002
 20
143.272675
 30
0.0
  0
VERTEX
  8
0
 10
796.311652
 20
143.459228
 30
0.0
  0
VERTEX
  8
0
 10
796.490057
 20
143.631448
 30
0.0
  0
VERTEX
  8
0
 10
796.680135
 20
143.784556
 30
0.0
  0
VERTEX
  8
0
 10
796.884805
 20
143.913776
 30
0.0
  0
VERTEX
  8
0
 10
797.106984
 20
144.014330
 30
0.0
  0
VERTEX
  8
0
 10
797.349591
 20
144.081439
 30
0.0
  0
VERTEX
  8
0
 10
797.615544
 20
144.110327
 30
0.0
  0
VERTEX
  8
0
 10
797.907762
 20
144.096215
 30
0.0
  0
VERTEX
  8
0
 10
798.229163
 20
144.034325
 30
0.0
  0
VERTEX
  8
0
 10
798.581308
 20
143.922232
 30
0.0
  0
VERTEX
  8
0
 10
798.960336
 20
143.766917
 30
0.0
  0
VERTEX
  8
0
 10
799.361027
 20
143.577712
 30
0.0
  0
VERTEX
  8
0
 10
799.778163
 20
143.363950
 30
0.0
  0
VERTEX
  8
0
 10
800.206525
 20
143.134965
 30
0.0
  0
VERTEX
  8
0
 10
800.640895
 20
142.900089
 30
0.0
  0
VERTEX
  8
0
 10
801.076052
 20
142.668655
 30
0.0
  0
VERTEX
  8
0
 10
801.506780
 20
142.449995
 30
0.0
  0
VERTEX
  8
0
 10
801.927858
 20
142.253443
 30
0.0
  0
VERTEX
  8
0
 10
802.334069
 20
142.088331
 30
0.0
  0
VERTEX
  8
0
 10
802.720193
 20
141.963992
 30
0.0
  0
VERTEX
  8
0
 10
803.082264
 20
141.887445
 30
0.0
  0
VERTEX
  8
0
 10
803.421331
 20
141.856448
 30
0.0
  0
VERTEX
  8
0
 10
803.739693
 20
141.866447
 30
0.0
  0
VERTEX
  8
0
 10
804.039652
 20
141.912887
 30
0.0
  0
VERTEX
  8
0
 10
804.323507
 20
141.991213
 30
0.0
  0
VERTEX
  8
0
 10
804.593559
 20
142.096869
 30
0.0
  0
VERTEX
  8
0
 10
804.852109
 20
142.225301
 30
0.0
  0
VERTEX
  8
0
 10
805.101457
 20
142.371953
 30
0.0
  0
VERTEX
  8
0
 10
805.343903
 20
142.532270
 30
0.0
  0
VERTEX
  8
0
 10
805.581748
 20
142.701698
 30
0.0
  0
VERTEX
  8
0
 10
805.817293
 20
142.875680
 30
0.0
  0
SEQEND
  8
0
  0
LINE
  8
0
 10
805.817293
 20
255.591200
 30
0.0
 11
805.817293
 21
272.118704
 31
0.0
  0
LINE
  8
0
 10
832.317293
 20
215.338890
 30
0.0
 11
832.317293
 21
272.118704
 31
0.0
  0
LINE
  8
0
 10
819.067293
 20
270.118704
 30
0.0
 11
805.817293
 21
270.118704
 31
0.0
  0
LINE
  8
0
 10
807.817293
 20
269.582805
 30
0.0
 11
805.817293
 21
270.118704
 31
0.0
  0
LINE
  8
0
 10
805.817293
 20
270.118704
 30
0.0
 11
807.817293
 21
270.654602
 31
0.0
  0
LINE
  8
0
 10
819.067293
 20
270.118704
 30
0.0
 11
832.317293
 21
270.118704
 31
0.0
  0
LINE
  8
0
 10
830.317293
 20
270.654602
 30
0.0
 11
832.317293
 21
270.118704
 31
0.0
  0
LINE
  8
0
 10
832.317293
 20
270.118704
 30
0.0
 11
830.317293
 21
269.582805
 31
0.0
  0
TEXT
  8
0
 10
811.067293
 20
270.118704
 30
0.0
 40
5.0
  7
CSTEXT
  1
２６．５
 41
0.800000
 72
     5
 11
827.067293
 21
270.118704
 31
0.0
  0
LINE
  8
0
 10
831.217293
 20
182.838890
 30
0.0
 11
831.217293
 21
121.885050
 31
0.0
  0
LINE
  8
0
 10
840.717293
 20
173.333540
 30
0.0
 11
840.717293
 21
121.885050
 31
0.0
  0
LINE
  8
0
 10
835.967293
 20
123.885050
 30
0.0
 11
831.217293
 21
123.885050
 31
0.0
  0
LINE
  8
0
 10
831.217293
 20
123.885050
 30
0.0
 11
825.217293
 21
123.885050
 31
0.0
  0
LINE
  8
0
 10
829.217293
 20
123.349152
 30
0.0
 11
831.217293
 21
123.885050
 31
0.0
  0
LINE
  8
0
 10
831.217293
 20
123.885050
 30
0.0
 11
829.217293
 21
124.420949
 31
0.0
  0
LINE
  8
0
 10
835.967293
 20
123.885050
 30
0.0
 11
840.717293
 21
123.885050
 31
0.0
  0
LINE
  8
0
 10
840.717293
 20
123.885050
 30
0.0
 11
858.717293
 21
123.885050
 31
0.0
  0
LINE
  8
0
 10
842.717293
 20
124.420949
 30
0.0
 11
840.717293
 21
123.885050
 31
0.0
  0
LINE
  8
0
 10
840.717293
 20
123.885050
 30
0.0
 11
842.717293
 21
123.349152
 31
0.0
  0
TEXT
  8
0
 10
846.717293
 20
123.885050
 30
0.0
 40
5.0
  7
CSTEXT
  1
９．５
 41
0.800000
 72
     5
 11
858.717293
 21
123.885050
 31
0.0
  0
LINE
  8
0
 10
772.317292
 20
165.338890
 30
0.0
 11
749.633968
 21
165.338890
 31
0.0
  0
LINE
  8
0
 10
791.217292
 20
238.838890
 30
0.0
 11
749.633968
 21
238.838890
 31
0.0
  0
LINE
  8
0
 10
751.633968
 20
202.088890
 30
0.0
 11
751.633968
 21
165.338890
 31
0.0
  0
LINE
  8
0
 10
752.169866
 20
167.338890
 30
0.0
 11
751.633968
 21
165.338890
 31
0.0
  0
LINE
  8
0
 10
751.633968
 20
165.338890
 30
0.0
 11
751.098070
 21
167.338890
 31
0.0
  0
LINE
  8
0
 10
751.633968
 20
202.088890
 30
0.0
 11
751.633968
 21
238.838890
 31
0.0
  0
LINE
  8
0
 10
751.098070
 20
236.838890
 30
0.0
 11
751.633968
 21
238.838890
 31
0.0
  0
LINE
  8
0
 10
751.633968
 20
238.838890
 30
0.0
 11
752.169866
 21
236.838890
 31
0.0
  0
TEXT
  8
0
 10
751.633968
 20
194.088890
 30
0.0
 40
5.0
  7
CSTEXT
  1
７３．５
 50
90.0
 41
0.800000
 72
     5
 11
751.633968
 21
210.088890
 31
0.0
  0
LINE
  8
0
 10
772.317292
 20
165.338890
 30
0.0
 11
749.633968
 21
165.338890
 31
0.0
  0
LINE
  8
0
 10
774.817292
 20
158.338890
 30
0.0
 11
749.633968
 21
158.338890
 31
0.0
  0
LINE
  8
0
 10
751.633968
 20
161.838890
 30
0.0
 11
751.633968
 21
165.338890
 31
0.0
  0
LINE
  8
0
 10
751.633968
 20
165.338890
 30
0.0
 11
751.633968
 21
171.338890
 31
0.0
  0
LINE
  8
0
 10
751.098070
 20
167.338890
 30
0.0
 11
751.633968
 21
165.338890
 31
0.0
  0
LINE
  8
0
 10
751.633968
 20
165.338890
 30
0.0
 11
752.169866
 21
167.338890
 31
0.0
  0
LINE
  8
0
 10
751.633968
 20
161.838890
 30
0.0
 11
751.633968
 21
158.338890
 31
0.0
  0
LINE
  8
0
 10
751.633968
 20
158.338890
 30
0.0
 11
751.633968
 21
148.338890
 31
0.0
  0
LINE
  8
0
 10
752.169866
 20
156.338890
 30
0.0
 11
751.633968
 21
158.338890
 31
0.0
  0
LINE
  8
0
 10
751.633968
 20
158.338890
 30
0.0
 11
751.098070
 21
156.338890
 31
0.0
  0
TEXT
  8
0
 10
751.633968
 20
148.338890
 30
0.0
 40
5.0
  7
CSTEXT
  1
７
 50
90.0
 41
0.800000
 72
     5
 11
751.633968
 21
152.338890
 31
0.0
  0
TEXT
  8
3
 10
780.812911
 20
247.838620
 30
0.0
 40
5.0
  7
CSTEXT
  1
K
 41
0.800000
 72
     5
 11
784.132911
 21
247.838620
 31
0.0
  0
TEXT
  8
3
 10
780.812911
 20
145.679550
 30
0.0
 40
5.0
  7
CSTEXT
  1
L
 41
0.800000
 72
     5
 11
784.132911
 21
145.679550
 31
0.0
  0
TEXT
  8
3
 10
813.422621
 20
154.847670
 30
0.0
 40
5.0
  7
CSTEXT
  1
k
 41
0.800000
 72
     5
 11
816.742621
 21
154.847670
 31
0.0
  0
POLYLINE
  8
0
 66
     1
 70
     0
  0
VERTEX
  8
0
 10
835.395306
 20
155.637245
 30
0.0
  0
VERTEX
  8
0
 10
835.453051
 20
155.725694
 30
0.0
  0
VERTEX
  8
0
 10
835.510724
 20
155.815351
 30
0.0
  0
VERTEX
  8
0
 10
835.568255
 20
155.907426
 30
0.0
  0
VERTEX
  8
0
 10
835.625570
 20
156.003128
 30
0.0
  0
VERTEX
  8
0
 10
835.682600
 20
156.103666
 30
0.0
  0
VERTEX
  8
0
 10
835.739271
 20
156.210248
 30
0.0
  0
VERTEX
  8
0
 10
835.795512
 20
156.324083
 30
0.0
  0
VERTEX
  8
0
 10
835.851253
 20
156.446381
 30
0.0
  0
VERTEX
  8
0
 10
835.906420
 20
156.578349
 30
0.0
  0
VERTEX
  8
0
 10
835.960944
 20
156.721198
 30
0.0
  0
VERTEX
  8
0
 10
836.014751
 20
156.876136
 30
0.0
  0
VERTEX
  8
0
 10
836.067693
 20
157.043737
 30
0.0
  0
VERTEX
  8
0
 10
836.119315
 20
157.222037
 30
0.0
  0
VERTEX
  8
0
 10
836.169083
 20
157.408438
 30
0.0
  0
VERTEX
  8
0
 10
836.216464
 20
157.600341
 30
0.0
  0
VERTEX
  8
0
 10
836.260924
 20
157.795148
 30
0.0
  0
VERTEX
  8
0
 10
836.301931
 20
157.990260
 30
0.0
  0
VERTEX
  8
0
 10
836.338951
 20
158.183078
 30
0.0
  0
VERTEX
  8
0
 10
836.371452
 20
158.371005
 30
0.0
  0
VERTEX
  8
0
 10
836.398899
 20
158.551441
 30
0.0
  0
VERTEX
  8
0
 10
836.420759
 20
158.721788
 30
0.0
  0
VERTEX
  8
0
 10
836.436501
 20
158.879448
 30
0.0
  0
VERTEX
  8
0
 10
836.445689
 20
159.022023
 30
0.0
  0
VERTEX
  8
0
 10
836.448290
 20
159.147921
 30
0.0
  0
VERTEX
  8
0
 10
836.444370
 20
159.255754
 30
0.0
  0
VERTEX
  8
0
 10
836.433993
 20
159.344129
 30
0.0
  0
VERTEX
  8
0
 10
836.417226
 20
159.411658
 30
0.0
  0
VERTEX
  8
0
 10
836.394133
 20
159.456950
 30
0.0
  0
VERTEX
  8
0
 10
836.364781
 20
159.478614
 30
0.0
  0
VERTEX
  8
0
 10
836.329235
 20
159.475262
 30
0.0
  0
VERTEX
  8
0
 10
836.287560
 20
159.445501
 30
0.0
  0
VERTEX
  8
0
 10
836.239822
 20
159.387944
 30
0.0
  0
VERTEX
  8
0
 10
836.186087
 20
159.301198
 30
0.0
  0
VERTEX
  8
0
 10
836.126711
 20
159.184723
 30
0.0
  0
VERTEX
  8
0
 10
836.063218
 20
159.041373
 30
0.0
  0
VERTEX
  8
0
 10
835.997426
 20
158.874852
 30
0.0
  0
VERTEX
  8
0
 10
835.931149
 20
158.688863
 30
0.0
  0
VERTEX
  8
0
 10
835.866203
 20
158.487109
 30
0.0
  0
VERTEX
  8
0
 10
835.804405
 20
158.273294
 30
0.0
  0
VERTEX
  8
0
 10
835.747570
 20
158.051120
 30
0.0
  0
VERTEX
  8
0
 10
835.697514
 20
157.824291
 30
0.0
  0
VERTEX
  8
0
 10
835.656054
 20
157.596511
 30
0.0
  0
VERTEX
  8
0
 10
835.625004
 20
157.371482
 30
0.0
  0
VERTEX
  8
0
 10
835.606181
 20
157.152909
 30
0.0
  0
VERTEX
  8
0
 10
835.600896
 20
156.944056
 30
0.0
  0
VERTEX
  8
0
 10
835.608444
 20
156.746434
 30
0.0
  0
VERTEX
  8
0
 10
835.627616
 20
156.561118
 30
0.0
  0
VERTEX
  8
0
 10
835.657202
 20
156.389181
 30
0.0
  0
VERTEX
  8
0
 10
835.695993
 20
156.231698
 30
0.0
  0
VERTEX
  8
0
 10
835.742778
 20
156.089740
 30
0.0
  0
VERTEX
  8
0
 10
835.796348
 20
155.964382
 30
0.0
  0
VERTEX
  8
0
 10
835.855494
 20
155.856699
 30
0.0
  0
VERTEX
  8
0
 10
835.919006
 20
155.767762
 30
0.0
  0
VERTEX
  8
0
 10
835.985674
 20
155.698646
 30
0.0
  0
VERTEX
  8
0
 10
836.054290
 20
155.650425
 30
0.0
  0
VERTEX
  8
0
 10
836.123833
 20
155.623660
 30
0.0
  0
VERTEX
  8
0
 10
836.194046
 20
155.616866
 30
0.0
  0
VERTEX
  8
0
 10
836.264863
 20
155.628046
 30
0.0
  0
VERTEX
  8
0
 10
836.336216
 20
155.655203
 30
0.0
  0
VERTEX
  8
0
 10
836.408038
 20
155.696339
 30
0.0
  0
VERTEX
  8
0
 10
836.480263
 20
155.749458
 30
0.0
  0
VERTEX
  8
0
 10
836.552822
 20
155.812563
 30
0.0
  0
VERTEX
  8
0
 10
836.625650
 20
155.883655
 30
0.0
  0
VERTEX
  8
0
 10
836.698678
 20
155.960740
 30
0.0
  0
VERTEX
  8
0
 10
836.771841
 20
156.041818
 30
0.0
  0
VERTEX
  8
0
 10
836.845071
 20
156.124894
 30
0.0
  0
SEQEND
  8
0
  0
LINE
  8
0
 10
939.060682
 20
212.338890
 30
0.0
 11
939.060682
 21
272.954393
 31
0.0
  0
LINE
  8
0
 10
1029.560682
 20
212.338890
 30
0.0
 11
1029.560682
 21
272.954393
 31
0.0
  0
LINE
  8
0
 10
984.310682
 20
270.954393
 30
0.0
 11
939.060682
 21
270.954393
 31
0.0
  0
LINE
  8
0
 10
941.060682
 20
270.418494
 30
0.0
 11
939.060682
 21
270.954393
 31
0.0
  0
LINE
  8
0
 10
939.060682
 20
270.954393
 30
0.0
 11
941.060682
 21
271.490291
 31
0.0
  0
LINE
  8
0
 10
984.310682
 20
270.954393
 30
0.0
 11
1029.560682
 21
270.954393
 31
0.0
  0
LINE
  8
0
 10
1027.560682
 20
271.490291
 30
0.0
 11
1029.560682
 21
270.954393
 31
0.0
  0
LINE
  8
0
 10
1029.560682
 20
270.954393
 30
0.0
 11
1027.560682
 21
270.418494
 31
0.0
  0
TEXT
  8
0
 10
976.310682
 20
270.954393
 30
0.0
 40
5.0
  7
CSTEXT
  1
９０．５
 41
0.800000
 72
     5
 11
992.310682
 21
270.954393
 31
0.0
  0
ARC
  8
7
 10
1023.710682
 20
216.726384
 30
0.0
 40
1.599999
 50
0.0
 51
73.808590
  0
ARC
  8
7
 10
1020.810682
 20
206.738891
 30
0.0
 40
12.0
 50
73.808650
 51
106.191340
  0
ARC
  8
7
 10
1017.910681
 20
216.726384
 30
0.0
 40
1.599999
 50
106.191280
 51
180.0
  0
CIRCLE
  8
7
 10
954.310683
 20
225.838890
 30
0.0
 40
5.249999
  0
CIRCLE
  8
7
 10
954.310683
 20
225.838890
 30
0.0
 40
5.249999
  0
CIRCLE
  8
7
 10
954.310683
 20
225.838890
 30
0.0
 40
5.749999
  0
LINE
  8
4
 10
954.910683
 20
224.488890
 30
0.0
 11
954.910683
 21
222.838890
 31
0.0
  0
ARC
  8
4
 10
955.660683
 20
224.488890
 30
0.0
 40
0.750000
 50
90.0
 51
180.0
  0
LINE
  8
4
 10
957.310683
 20
225.238890
 30
0.0
 11
955.660683
 21
225.238890
 31
0.0
  0
LINE
  8
4
 10
957.310683
 20
226.438890
 30
0.0
 11
957.310683
 21
225.238890
 31
0.0
  0
LINE
  8
4
 10
957.310683
 20
226.438890
 30
0.0
 11
955.660683
 21
226.438890
 31
0.0
  0
ARC
  8
4
 10
955.660683
 20
227.188890
 30
0.0
 40
0.750000
 50
180.0
 51
270.0
  0
LINE
  8
4
 10
954.910683
 20
227.188890
 30
0.0
 11
954.910683
 21
228.838890
 31
0.0
  0
LINE
  8
4
 10
954.910683
 20
228.838890
 30
0.0
 11
953.710683
 21
228.838890
 31
0.0
  0
LINE
  8
4
 10
953.710683
 20
227.188890
 30
0.0
 11
953.710683
 21
228.838890
 31
0.0
  0
ARC
  8
4
 10
952.960683
 20
227.188890
 30
0.0
 40
0.750000
 50
270.0
 51
360.0
  0
LINE
  8
4
 10
952.960683
 20
226.438890
 30
0.0
 11
951.310683
 21
226.438890
 31
0.0
  0
LINE
  8
4
 10
951.310683
 20
226.438890
 30
0.0
 11
951.310683
 21
225.238890
 31
0.0
  0
LINE
  8
4
 10
952.960683
 20
225.238890
 30
0.0
 11
951.310683
 21
225.238890
 31
0.0
  0
ARC
  8
4
 10
952.960683
 20
224.488890
 30
0.0
 40
0.750000
 50
0.0
 51
90.0
  0
LINE
  8
4
 10
953.710683
 20
224.488890
 30
0.0
 11
953.710683
 21
222.838890
 31
0.0
  0
LINE
  8
4
 10
954.910683
 20
222.838890
 30
0.0
 11
953.710683
 21
222.838890
 31
0.0
  0
LINE
  8
4
 10
1016.310682
 20
226.438890
 30
0.0
 11
1014.660682
 21
226.438890
 31
0.0
  0
LINE
  8
4
 10
1016.310682
 20
226.438890
 30
0.0
 11
1016.310682
 21
225.238890
 31
0.0
  0
LINE
  8
4
 10
1016.310682
 20
225.238890
 30
0.0
 11
1014.660682
 21
225.238890
 31
0.0
  0
ARC
  8
4
 10
1014.660682
 20
224.488890
 30
0.0
 40
0.750000
 50
90.0
 51
180.0
  0
LINE
  8
4
 10
1013.910682
 20
224.488890
 30
0.0
 11
1013.910682
 21
222.838890
 31
0.0
  0
LINE
  8
4
 10
1013.910682
 20
222.838890
 30
0.0
 11
1012.710682
 21
222.838890
 31
0.0
  0
LINE
  8
4
 10
1012.710682
 20
224.488890
 30
0.0
 11
1012.710682
 21
222.838890
 31
0.0
  0
ARC
  8
4
 10
1011.960682
 20
224.488890
 30
0.0
 40
0.750000
 50
0.0
 51
90.0
  0
LINE
  8
4
 10
1011.960682
 20
225.238890
 30
0.0
 11
1010.310682
 21
225.238890
 31
0.0
  0
LINE
  8
4
 10
1010.310682
 20
226.438890
 30
0.0
 11
1010.310682
 21
225.238890
 31
0.0
  0
LINE
  8
4
 10
1011.960682
 20
226.438890
 30
0.0
 11
1010.310682
 21
226.438890
 31
0.0
  0
ARC
  8
4
 10
1011.960682
 20
227.188890
 30
0.0
 40
0.750000
 50
270.0
 51
360.0
  0
LINE
  8
4
 10
1012.710682
 20
227.188890
 30
0.0
 11
1012.710682
 21
228.838890
 31
0.0
  0
LINE
  8
4
 10
1013.910682
 20
228.838890
 30
0.0
 11
1012.710682
 21
228.838890
 31
0.0
  0
LINE
  8
4
 10
1013.910682
 20
227.188890
 30
0.0
 11
1013.910682
 21
228.838890
 31
0.0
  0
ARC
  8
4
 10
1014.660682
 20
227.188890
 30
0.0
 40
0.750000
 50
180.0
 51
270.0
  0
LINE
  8
0
 10
943.810682
 20
235.838890
 30
0.0
 11
943.810682
 21
264.063388
 31
0.0
  0
LINE
  8
0
 10
1024.810682
 20
235.838890
 30
0.0
 11
1024.810682
 21
264.063388
 31
0.0
  0
LINE
  8
0
 10
984.310682
 20
262.063388
 30
0.0
 11
943.810682
 21
262.063388
 31
0.0
  0
LINE
  8
0
 10
945.810682
 20
261.527490
 30
0.0
 11
943.810682
 21
262.063388
 31
0.0
  0
LINE
  8
0
 10
943.810682
 20
262.063388
 30
0.0
 11
945.810682
 21
262.599287
 31
0.0
  0
LINE
  8
0
 10
984.310682
 20
262.063388
 30
0.0
 11
1024.810682
 21
262.063388
 31
0.0
  0
LINE
  8
0
 10
1022.810682
 20
262.599287
 30
0.0
 11
1024.810682
 21
262.063388
 31
0.0
  0
LINE
  8
0
 10
1024.810682
 20
262.063388
 30
0.0
 11
1022.810682
 21
261.527490
 31
0.0
  0
TEXT
  8
0
 10
980.310682
 20
262.063388
 30
0.0
 40
5.0
  7
CSTEXT
  1
８１
 41
0.800000
 72
     5
 11
988.310682
 21
262.063388
 31
0.0
  0
LINE
  8
0
 10
929.563284
 20
176.022990
 30
0.0
 11
929.563284
 21
272.776588
 31
0.0
  0
LINE
  8
0
 10
939.060682
 20
212.338890
 30
0.0
 11
939.060682
 21
272.776588
 31
0.0
  0
LINE
  8
0
 10
934.311983
 20
270.776588
 30
0.0
 11
929.563284
 21
270.776588
 31
0.0
  0
LINE
  8
0
 10
929.563284
 20
270.776588
 30
0.0
 11
911.563284
 21
270.776588
 31
0.0
  0
LINE
  8
0
 10
927.563284
 20
270.240689
 30
0.0
 11
929.563284
 21
270.776588
 31
0.0
  0
LINE
  8
0
 10
929.563284
 20
270.776588
 30
0.0
 11
927.563284
 21
271.312486
 31
0.0
  0
LINE
  8
0
 10
934.311983
 20
270.776588
 30
0.0
 11
939.060682
 21
270.776588
 31
0.0
  0
LINE
  8
0
 10
939.060682
 20
270.776588
 30
0.0
 11
945.060682
 21
270.776588
 31
0.0
  0
LINE
  8
0
 10
941.060682
 20
271.312486
 30
0.0
 11
939.060682
 21
270.776588
 31
0.0
  0
LINE
  8
0
 10
939.060682
 20
270.776588
 30
0.0
 11
941.060682
 21
270.240689
 31
0.0
  0
TEXT
  8
0
 10
911.563284
 20
270.776588
 30
0.0
 40
5.0
  7
CSTEXT
  1
９．５
 41
0.800000
 72
     5
 11
923.563284
 21
270.776588
 31
0.0
  0
LINE
  8
0
 10
1027.310682
 20
165.338890
 30
0.0
 11
1041.720085
 21
165.338890
 31
0.0
  0
LINE
  8
0
 10
1027.310682
 20
211.338890
 30
0.0
 11
1041.720085
 21
211.338890
 31
0.0
  0
LINE
  8
0
 10
1039.720085
 20
188.338890
 30
0.0
 11
1039.720085
 21
165.338890
 31
0.0
  0
LINE
  8
0
 10
1040.255983
 20
167.338890
 30
0.0
 11
1039.720085
 21
165.338890
 31
0.0
  0
LINE
  8
0
 10
1039.720085
 20
165.338890
 30
0.0
 11
1039.184186
 21
167.338890
 31
0.0
  0
LINE
  8
0
 10
1039.720085
 20
188.338890
 30
0.0
 11
1039.720085
 21
211.338890
 31
0.0
  0
LINE
  8
0
 10
1039.184186
 20
209.338890
 30
0.0
 11
1039.720085
 21
211.338890
 31
0.0
  0
LINE
  8
0
 10
1039.720085
 20
211.338890
 30
0.0
 11
1040.255983
 21
209.338890
 31
0.0
  0
TEXT
  8
0
 10
1039.720085
 20
184.338890
 30
0.0
 40
5.0
  7
CSTEXT
  1
４６
 50
90.0
 41
0.800000
 72
     5
 11
1039.720085
 21
192.338890
 31
0.0
  0
ARC
  8
7
 10
1017.360683
 20
162.192027
 30
0.0
 40
1.853133
 50
270.0
 51
308.357670
  0
ARC
  8
7
 10
1020.810682
 20
167.151390
 30
0.0
 40
6.812498
 50
250.268330
 51
289.731580
  0
ARC
  8
7
 10
1024.260681
 20
162.192028
 30
0.0
 40
1.853135
 50
231.642265
 51
270.0
  0
ARC
  8
7
 10
776.417292
 20
216.726384
 30
0.0
 40
1.599999
 50
106.191280
 51
180.0
  0
ARC
  8
7
 10
782.217293
 20
216.726384
 30
0.0
 40
1.599999
 50
0.0
 51
73.808590
  0
ARC
  8
7
 10
779.317292
 20
206.738891
 30
0.0
 40
12.0
 50
73.808650
 51
106.191340
  0
ARC
  8
7
 10
775.867294
 20
162.192027
 30
0.0
 40
1.853133
 50
270.0
 51
308.357670
  0
ARC
  8
7
 10
779.317292
 20
167.151390
 30
0.0
 40
6.812498
 50
250.268330
 51
289.731580
  0
ARC
  8
7
 10
782.767291
 20
162.192028
 30
0.0
 40
1.853135
 50
231.642265
 51
270.0
  0
ARC
  8
7
 10
787.433711
 20
229.651397
 30
0.0
 40
2.316419
 50
180.000000
 51
218.357735
  0
ARC
  8
7
 10
793.632914
 20
225.338899
 30
0.0
 40
8.515623
 50
160.268420
 51
199.731670
  0
ARC
  8
7
 10
787.433709
 20
221.026400
 30
0.0
 40
2.316416
 50
141.642330
 51
180.0
  0
TEXT
  8
0
 10
255.618524
 20
-32.5
 30
0.0
 40
10.0
  7
CSTEXT
  1
外形寸法図
 41
0.800000
 72
     5
 11
327.618524
 21
-32.5
 31
0.0
  0
LINE
  8
0
 10
255.618524
 20
-33.5
 30
0.0
 11
327.618524
 21
-33.5
 31
0.0
  0
TEXT
  8
0
 10
177.118524
 20
-47.5
 30
0.0
 40
10.0
  7
CSTEXT
  1
１１００Ｖ以下低圧変成器ＣＴシリーズ　ＣＴ－１５ＬＭＳ
 41
0.800000
 72
     5
 11
406.118524
 21
-47.5
 31
0.0
  0
LINE
  8
0
 10
177.118524
 20
-48.5
 30
0.0
 11
406.118524
 21
-48.5
 31
0.0
  0
LINE
  8
0
 62
     7
 10
5.0
 20
-420.0
 30
0.0
 11
5.0
 21
-15.0
 31
0.0
  0
LINE
  8
0
 62
     7
 10
5.0
 20
-420.0
 30
0.0
 11
585.0
 21
-420.0
 31
0.0
  0
LINE
  8
0
 62
     7
 10
585.0
 20
-15.0
 30
0.0
 11
585.0
 21
-420.0
 31
0.0
  0
LINE
  8
0
 62
     7
 10
585.0
 20
-15.0
 30
0.0
 11
5.0
 21
-15.0
 31
0.0
  0
LINE
  8
0
 62
     7
 10
0.0
 20
-10.0
 30
0.0
 11
0.0
 21
-425.0
 31
0.0
  0
LINE
  8
0
 62
     7
 10
590.0
 20
-425.0
 30
0.0
 11
590.0
 21
-10.0
 31
0.0
  0
LINE
  8
0
 62
     7
 10
590.0
 20
-10.0
 30
0.0
 11
0.0
 21
-10.0
 31
0.0
  0
LINE
  8
0
 62
     7
 10
590.0
 20
-425.0
 30
0.0
 11
0.0
 21
-425.0
 31
0.0
  0
TEXT
  8
0
 10
236.618524
 20
-62.5
 30
0.0
 40
10.0
  7
CSTEXT
  1
検定専用品　ブスバー配線用
 41
0.800000
 72
     5
 11
346.618524
 21
-62.5
 31
0.0
  0
LINE
  8
0
 10
236.618524
 20
-63.5
 30
0.0
 11
346.618524
 21
-63.5
 31
0.0
  0
TEXT
  8
3
 10
1.000000
 20
-424.5
 30
0.0
 40
3.500000
  7
CSTEXT
  1
BK-15LMS-6
 41
0.800000
 72
     5
 11
24.240000
 21
-424.5
 31
0.0
  0
TEXT
  8
0
 10
232.368524
 20
-77.5
 30
0.0
 40
10.0
  7
CSTEXT
  1
６００Ａ、７５０Ａ、８００Ａ
 41
0.800000
 72
     5
 11
350.868524
 21
-77.5
 31
0.0
  0
LINE
  8
0
 10
350.868524
 20
-78.5
 30
0.0
 11
232.368524
 21
-78.5
 31
0.0
  0
LINE
  8
7
 62
     4
  6
PHANTOM
 10
195.817293
 20
-281.5
 30
0.0
 11
195.817293
 21
-170.8
 31
0.0
  0
LINE
  8
7
 62
     4
  6
PHANTOM
 10
205.817293
 20
-281.5
 30
0.0
 11
205.817293
 21
-170.8
 31
0.0
  0
LINE
  8
6
 10
200.817293
 20
-165.3
 30
0.0
 11
200.817293
 21
-287.0
 31
0.0
  0
LINE
  8
7
 10
178.317293
 20
-271.0
 30
0.0
 11
173.317293
 21
-271.0
 31
0.0
  0
LINE
  8
7
 10
173.717293
 20
-269.5
 30
0.0
 11
173.717293
 21
-271.0
 31
0.0
  0
LINE
  8
7
 10
173.317293
 20
-269.5
 30
0.0
 11
173.317293
 21
-271.0
 31
0.0
  0
LINE
  8
7
 10
177.917293
 20
-269.5
 30
0.0
 11
177.917293
 21
-271.0
 31
0.0
  0
LINE
  8
7
 10
178.317293
 20
-269.5
 30
0.0
 11
178.317293
 21
-271.0
 31
0.0
  0
LINE
  8
7
 10
183.217297
 20
-201.7
 30
0.0
 11
183.217297
 21
-195.7
 31
0.0
  0
LINE
  8
7
 10
183.217297
 20
-201.2
 30
0.0
 11
184.717297
 21
-201.2
 31
0.0
  0
LINE
  8
7
 10
183.217297
 20
-201.7
 30
0.0
 11
184.717297
 21
-201.7
 31
0.0
  0
LINE
  8
7
 10
183.217297
 20
-196.2
 30
0.0
 11
184.717297
 21
-196.2
 31
0.0
  0
LINE
  8
7
 10
183.217297
 20
-195.7
 30
0.0
 11
184.717297
 21
-195.7
 31
0.0
  0
LINE
  8
7
 10
223.317293
 20
-271.0
 30
0.0
 11
228.317293
 21
-271.0
 31
0.0
  0
LINE
  8
7
 10
223.717293
 20
-269.5
 30
0.0
 11
223.717293
 21
-271.0
 31
0.0
  0
LINE
  8
7
 10
223.317293
 20
-269.5
 30
0.0
 11
223.317293
 21
-271.0
 31
0.0
  0
LINE
  8
7
 10
227.917293
 20
-269.5
 30
0.0
 11
227.917293
 21
-271.0
 31
0.0
  0
LINE
  8
7
 10
228.317293
 20
-269.5
 30
0.0
 11
228.317293
 21
-271.0
 31
0.0
  0
LINE
  8
7
 10
331.810682
 20
-271.7
 30
0.0
 11
336.810682
 21
-271.7
 31
0.0
  0
LINE
  8
7
 10
331.810682
 20
-270.2
 30
0.0
 11
331.810682
 21
-271.7
 31
0.0
  0
LINE
  8
7
 10
332.210682
 20
-270.2
 30
0.0
 11
332.210682
 21
-271.7
 31
0.0
  0
LINE
  8
7
 10
336.810682
 20
-270.2
 30
0.0
 11
336.810682
 21
-271.7
 31
0.0
  0
LINE
  8
7
 10
336.410682
 20
-270.2
 30
0.0
 11
336.410682
 21
-271.7
 31
0.0
  0
LINE
  8
7
 62
     4
  6
PHANTOM
 10
346.810682
 20
-278.3
 30
0.0
 11
346.810682
 21
-175.4
 31
0.0
  0
LINE
  8
7
 62
     4
  6
PHANTOM
 10
421.810682
 20
-278.3
 30
0.0
 11
421.810682
 21
-175.4
 31
0.0
  0
LINE
  8
6
 10
384.310682
 20
-284.3
 30
0.0
 11
384.310682
 21
-166.0
 31
0.0
  0
LINE
  8
7
 10
436.810682
 20
-271.7
 30
0.0
 11
431.810682
 21
-271.7
 31
0.0
  0
LINE
  8
7
 10
431.810682
 20
-270.2
 30
0.0
 11
431.810682
 21
-271.7
 31
0.0
  0
LINE
  8
7
 10
432.210682
 20
-270.2
 30
0.0
 11
432.210682
 21
-271.7
 31
0.0
  0
LINE
  8
7
 10
436.810682
 20
-270.2
 30
0.0
 11
436.810682
 21
-271.7
 31
0.0
  0
LINE
  8
7
 10
436.410682
 20
-270.2
 30
0.0
 11
436.410682
 21
-271.7
 31
0.0
  0
LINE
  8
7
 10
437.810682
 20
-206.6
 30
0.0
 11
437.810682
 21
-191.4
 31
0.0
  0
POINT
  8
7
 10
425.810682
 20
-199.4
 30
0.0
  0
CIRCLE
  8
7
 10
425.810682
 20
-199.4
 30
0.0
 40
5.749999
  0
CIRCLE
  8
7
 10
425.810682
 20
-199.4
 30
0.0
 40
5.249999
  0
ARC
  8
7
 10
432.810682
 20
-191.4
 30
0.0
 40
5.000000
 50
0.000000
 51
90.000000
  0
LINE
  8
7
 10
444.810682
 20
-220.2
 30
0.0
 11
441.510682
 21
-220.2
 31
0.0
  0
LINE
  8
7
 10
444.810682
 20
-220.2
 30
0.0
 11
444.810682
 21
-215.4
 31
0.0
  0
LINE
  8
7
 10
441.510682
 20
-220.2
 30
0.0
 11
441.510682
 21
-215.2
 31
0.0
  0
ARC
  8
7
 10
439.110682
 20
-216.4
 30
0.0
 40
2.200000
 50
0.000000
 51
90.000000
  0
ARC
  8
7
 10
440.810682
 20
-215.4
 30
0.0
 40
4.000000
 50
0.000000
 51
90.000000
  0
ARC
  8
7
 10
440.510682
 20
-215.2
 30
0.0
 40
1.000000
 50
0.000000
 51
90.000000
  0
LINE
  8
7
 10
439.110682
 20
-214.2
 30
0.0
 11
426.110682
 21
-214.2
 31
0.0
  0
LINE
  8
7
 10
441.310682
 20
-255.3
 30
0.0
 11
441.310682
 21
-263.2
 31
0.0
  0
ARC
  8
7
 10
439.310682
 20
-263.2
 30
0.0
 40
2.000000
 50
270.000000
 51
360.000000
  0
LINE
  8
7
 10
439.310682
 20
-265.2
 30
0.0
 11
320.270732
 21
-265.2
 31
0.0
  0
POINT
  8
7
 10
434.310682
 20
-265.2
 30
0.0
  0
LINE
  8
7
 10
439.310682
 20
-266.2
 30
0.0
 11
438.910682
 21
-266.2
 31
0.0
  0
LINE
  8
7
 10
439.310682
 20
-265.2
 30
0.0
 11
439.310682
 21
-266.2
 31
0.0
  0
LINE
  8
7
 10
429.310682
 20
-265.2
 30
0.0
 11
439.310682
 21
-265.2
 31
0.0
  0
LINE
  8
7
 10
429.310682
 20
-266.2
 30
0.0
 11
429.310682
 21
-265.2
 31
0.0
  0
LINE
  8
7
 10
429.710681
 20
-266.2
 30
0.0
 11
429.310682
 21
-266.2
 31
0.0
  0
LINE
  8
7
 10
436.610682
 20
-269.8
 30
0.0
 11
436.610682
 21
-266.2
 31
0.0
  0
LINE
  8
7
 10
432.010682
 20
-269.8
 30
0.0
 11
432.010682
 21
-266.2
 31
0.0
  0
LINE
  8
7
 10
429.710682
 20
-269.8
 30
0.0
 11
429.710682
 21
-266.2
 31
0.0
  0
LINE
  8
7
 10
430.410687
 20
-270.2
 30
0.0
 11
429.710687
 21
-269.8
 31
0.0
  0
LINE
  8
7
 10
438.210681
 20
-270.2
 30
0.0
 11
430.410683
 21
-270.2
 31
0.0
  0
LINE
  8
7
 10
438.910676
 20
-269.8
 30
0.0
 11
438.210677
 21
-270.2
 31
0.0
  0
LINE
  8
7
 10
438.910681
 20
-266.2
 30
0.0
 11
438.910681
 21
-269.8
 31
0.0
  0
LINE
  8
7
 10
429.710681
 20
-266.2
 30
0.0
 11
438.910682
 21
-266.2
 31
0.0
  0
LINE
  8
7
 62
     4
  6
DASHED
 10
424.310682
 20
-265.2
 30
0.0
 11
424.310682
 21
-214.6
 31
0.0
  0
LINE
  8
7
 10
441.310682
 20
-255.3
 30
0.0
 11
441.310682
 21
-216.4
 31
0.0
  0
LINE
  8
7
 10
387.310682
 20
-255.3
 30
0.0
 11
387.310682
 21
-252.3
 31
0.0
  0
LINE
  8
7
 10
381.310682
 20
-255.3
 30
0.0
 11
381.310682
 21
-252.3
 31
0.0
  0
LINE
  8
7
 10
387.310682
 20
-255.3
 30
0.0
 11
381.310682
 21
-255.3
 31
0.0
  0
LINE
  8
7
 10
387.310682
 20
-252.3
 30
0.0
 11
381.310682
 21
-252.3
 31
0.0
  0
LINE
  8
7
 10
345.938942
 20
-265.2
 30
0.0
 11
345.938942
 21
-255.3
 31
0.0
  0
LINE
  8
7
 10
338.939172
 20
-252.4
 30
0.0
 11
338.529752
 21
-252.4
 31
0.0
  0
LINE
  8
7
 10
338.529752
 20
-252.4
 30
0.0
 11
338.529752
 21
-251.1
 31
0.0
  0
LINE
  8
7
 10
338.109482
 20
-256.6
 30
0.0
 11
338.053232
 21
-255.6
 31
0.0
  0
LINE
  8
7
 10
338.053232
 20
-255.6
 30
0.0
 11
337.849732
 21
-254.6
 31
0.0
  0
LINE
  8
7
 10
337.777412
 20
-258.5
 30
0.0
 11
338.016392
 21
-257.6
 31
0.0
  0
ARC
  8
7
 10
341.230552
 20
-264.2
 30
0.0
 40
1.000000
 50
180.000000
 51
270.000000
  0
LINE
  8
7
 10
340.230552
 20
-255.3
 30
0.0
 11
340.230552
 21
-264.2
 31
0.0
  0
LINE
  8
7
 10
338.939172
 20
-261.8
 30
0.0
 11
338.939172
 21
-252.4
 31
0.0
  0
LINE
  8
7
 10
338.016392
 20
-257.6
 30
0.0
 11
338.109482
 21
-256.6
 31
0.0
  0
LINE
  8
7
 62
     4
  6
DASHED
 10
344.310682
 20
-265.2
 30
0.0
 11
344.310682
 21
-214.6
 31
0.0
  0
LINE
  8
7
 10
340.230552
 20
-255.3
 30
0.0
 11
340.230552
 21
-245.3
 31
0.0
  0
LINE
  8
7
 10
345.938942
 20
-255.3
 30
0.0
 11
345.938942
 21
-214.6
 31
0.0
  0
LINE
  8
7
 10
435.061234
 20
-209.3
 30
0.0
 11
434.310682
 21
-210.6
 31
0.0
  0
LINE
  8
7
 10
434.310682
 20
-209.3
 30
0.0
 11
433.560129
 21
-210.6
 31
0.0
  0
LINE
  8
7
 10
439.310682
 20
-211.4
 30
0.0
 11
439.310682
 21
-210.6
 31
0.0
  0
LINE
  8
7
 10
429.310682
 20
-210.6
 30
0.0
 11
429.310682
 21
-211.4
 31
0.0
  0
LINE
  8
7
 10
429.310682
 20
-210.6
 30
0.0
 11
439.310682
 21
-210.6
 31
0.0
  0
LINE
  8
7
 10
438.485680
 20
-210.6
 30
0.0
 11
438.485680
 21
-209.3
 31
0.0
  0
LINE
  8
7
 10
430.135684
 20
-210.6
 30
0.0
 11
430.135684
 21
-209.3
 31
0.0
  0
LINE
  8
7
 10
438.810682
 20
-209.3
 30
0.0
 11
438.810682
 21
-208.1
 31
0.0
  0
LINE
  8
7
 10
429.810682
 20
-209.3
 30
0.0
 11
429.810682
 21
-208.1
 31
0.0
  0
LINE
  8
7
 10
438.810682
 20
-209.3
 30
0.0
 11
429.810682
 21
-209.3
 31
0.0
  0
POINT
  8
7
 10
439.310678
 20
-265.2
 30
0.0
  0
POINT
  8
7
 10
440.510675
 20
-214.2
 30
0.0
  0
LINE
  8
7
 10
330.810682
 20
-206.6
 30
0.0
 11
330.810682
 21
-191.4
 31
0.0
  0
ARC
  8
7
 10
335.810682
 20
-191.4
 30
0.0
 40
5.000000
 50
90.000000
 51
180.000000
  0
LINE
  8
7
 10
211.117292
 20
-197.8
 30
0.0
 11
209.617293
 21
-198.7
 31
0.0
  0
LINE
  8
7
 10
211.117292
 20
-198.7
 30
0.0
 11
209.617293
 21
-199.5
 31
0.0
  0
ARC
  8
7
 10
212.644309
 20
-195.3
 30
0.0
 40
1.900000
 50
16.072820
 51
90.0
  0
ARC
  8
7
 10
212.644309
 20
-202.0
 30
0.0
 40
1.900000
 50
270.0
 51
343.927110
  0
LINE
  8
7
 10
212.644309
 20
-193.4
 30
0.0
 11
211.117293
 21
-193.4
 31
0.0
  0
LINE
  8
7
 10
212.644309
 20
-203.9
 30
0.0
 11
211.117293
 21
-203.9
 31
0.0
  0
LINE
  8
7
 10
211.117293
 20
-203.9
 30
0.0
 11
211.117293
 21
-193.4
 31
0.0
  0
LINE
  8
7
 10
209.617293
 20
-193.6
 30
0.0
 11
211.117293
 21
-193.6
 31
0.0
  0
LINE
  8
7
 10
211.117293
 20
-203.7
 30
0.0
 11
209.617293
 21
-203.7
 31
0.0
  0
LINE
  8
7
 10
209.617293
 20
-192.9
 30
0.0
 11
208.817293
 21
-192.9
 31
0.0
  0
LINE
  8
7
 10
209.617293
 20
-204.4
 30
0.0
 11
208.817293
 21
-204.4
 31
0.0
  0
LINE
  8
7
 10
209.617293
 20
-204.4
 30
0.0
 11
209.617293
 21
-192.9
 31
0.0
  0
LINE
  8
7
 10
208.817293
 20
-204.4
 30
0.0
 11
208.817293
 21
-192.9
 31
0.0
  0
POINT
  8
7
 10
208.817293
 20
-198.7
 30
0.0
  0
ARC
  8
7
 10
201.017293
 20
-198.7
 30
0.0
 40
14.0
 50
343.927160
 51
376.072820
  0
ARC
  8
7
 10
329.510682
 20
-216.4
 30
0.0
 40
2.200000
 50
90.000000
 51
180.000000
  0
ARC
  8
7
 10
328.110682
 20
-215.2
 30
0.0
 40
1.000000
 50
90.000000
 51
180.000000
  0
LINE
  8
7
 10
327.110682
 20
-220.2
 30
0.0
 11
323.810682
 21
-220.2
 31
0.0
  0
LINE
  8
7
 10
323.810682
 20
-220.2
 30
0.0
 11
323.810682
 21
-215.4
 31
0.0
  0
LINE
  8
7
 10
327.110682
 20
-220.2
 30
0.0
 11
327.110682
 21
-215.2
 31
0.0
  0
LINE
  8
7
 10
327.310682
 20
-245.3
 30
0.0
 11
327.310682
 21
-216.4
 31
0.0
  0
ARC
  8
7
 10
327.810682
 20
-215.4
 30
0.0
 40
4.000000
 50
90.000000
 51
180.000000
  0
LINE
  8
7
 10
337.036292
 20
-252.9
 30
0.0
 11
336.456482
 21
-252.3
 31
0.0
  0
LINE
  8
7
 10
336.456482
 20
-252.3
 30
0.0
 11
335.788562
 21
-251.8
 31
0.0
  0
LINE
  8
7
 10
335.788562
 20
-251.8
 30
0.0
 11
335.057282
 21
-251.4
 31
0.0
  0
LINE
  8
7
 10
335.057282
 20
-251.4
 30
0.0
 11
334.289712
 21
-251.3
 31
0.0
  0
LINE
  8
7
 10
336.083852
 20
-257.0
 30
0.0
 11
336.092962
 21
-256.2
 31
0.0
  0
LINE
  8
7
 10
336.092962
 20
-256.2
 30
0.0
 11
336.016562
 21
-255.4
 31
0.0
  0
LINE
  8
7
 10
336.016562
 20
-255.4
 30
0.0
 11
335.857342
 21
-254.7
 31
0.0
  0
LINE
  8
7
 10
335.857342
 20
-254.7
 30
0.0
 11
335.620902
 21
-254.0
 31
0.0
  0
LINE
  8
7
 10
335.620902
 20
-254.0
 30
0.0
 11
335.315572
 21
-253.5
 31
0.0
  0
LINE
  8
7
 10
335.315572
 20
-253.5
 30
0.0
 11
334.952112
 21
-253.0
 31
0.0
  0
LINE
  8
7
 10
337.036522
 20
-254.9
 30
0.0
 11
336.797622
 21
-254.1
 31
0.0
  0
LINE
  8
7
 10
336.797622
 20
-254.1
 30
0.0
 11
336.467292
 21
-253.4
 31
0.0
  0
LINE
  8
7
 10
336.467292
 20
-253.4
 30
0.0
 11
336.057302
 21
-252.8
 31
0.0
  0
LINE
  8
7
 10
336.057302
 20
-252.8
 30
0.0
 11
335.582262
 21
-252.3
 31
0.0
  0
LINE
  8
7
 10
335.582262
 20
-252.3
 30
0.0
 11
335.059112
 21
-252.0
 31
0.0
  0
LINE
  8
7
 10
335.059112
 20
-252.0
 30
0.0
 11
334.506492
 21
-251.8
 31
0.0
  0
LINE
  8
7
 10
334.506492
 20
-251.8
 30
0.0
 11
333.944112
 21
-251.8
 31
0.0
  0
LINE
  8
7
 10
334.646062
 20
-252.0
 30
0.0
 11
335.964762
 21
-256.4
 31
0.0
  0
LINE
  8
7
 10
330.853152
 20
-254.4
 30
0.0
 11
330.465342
 21
-254.4
 31
0.0
  0
LINE
  8
7
 10
333.514292
 20
-251.3
 30
0.0
 11
332.759732
 21
-251.6
 31
0.0
  0
LINE
  8
7
 10
332.759732
 20
-251.6
 30
0.0
 11
332.054002
 21
-252.0
 31
0.0
  0
LINE
  8
7
 10
330.853152
 20
-256.1
 30
0.0
 11
331.990742
 21
-256.1
 31
0.0
  0
LINE
  8
7
 10
330.853152
 20
-256.7
 30
0.0
 11
331.990742
 21
-256.7
 31
0.0
  0
LINE
  8
7
 10
330.853152
 20
-256.1
 30
0.0
 11
330.853152
 21
-254.4
 31
0.0
  0
LINE
  8
7
 10
331.990742
 20
-256.1
 30
0.0
 11
331.990742
 21
-256.7
 31
0.0
  0
LINE
  8
7
 10
334.289712
 20
-251.3
 30
0.0
 11
333.514292
 21
-251.3
 31
0.0
  0
LINE
  8
7
 10
333.944112
 20
-251.8
 30
0.0
 11
333.392012
 21
-252.0
 31
0.0
  0
LINE
  8
7
 10
335.964762
 20
-256.4
 30
0.0
 11
333.844182
 21
-256.4
 31
0.0
  0
LINE
  8
7
 10
332.525472
 20
-252.0
 30
0.0
 11
333.844182
 21
-256.4
 31
0.0
  0
LINE
  8
7
 10
334.097482
 20
-261.7
 30
0.0
 11
334.869672
 21
-261.6
 31
0.0
  0
LINE
  8
7
 10
334.869672
 20
-261.6
 30
0.0
 11
335.612532
 21
-261.3
 31
0.0
  0
LINE
  8
7
 10
335.612532
 20
-261.3
 30
0.0
 11
336.298532
 21
-260.8
 31
0.0
  0
LINE
  8
7
 10
336.298532
 20
-260.8
 30
0.0
 11
336.902282
 21
-260.2
 31
0.0
  0
LINE
  8
7
 10
334.868662
 20
-260.1
 30
0.0
 11
335.242882
 21
-259.7
 31
0.0
  0
LINE
  8
7
 10
335.242882
 20
-259.7
 30
0.0
 11
335.561522
 21
-259.1
 31
0.0
  0
LINE
  8
7
 10
335.561522
 20
-259.1
 30
0.0
 11
335.813372
 21
-258.4
 31
0.0
  0
LINE
  8
7
 10
335.813372
 20
-258.4
 30
0.0
 11
335.989542
 21
-257.7
 31
0.0
  0
LINE
  8
7
 10
334.304522
 20
-261.1
 30
0.0
 11
334.862942
 21
-261.0
 31
0.0
  0
LINE
  8
7
 10
334.862942
 20
-261.0
 30
0.0
 11
335.398902
 21
-260.7
 31
0.0
  0
LINE
  8
7
 10
335.398902
 20
-260.7
 30
0.0
 11
335.893272
 21
-260.3
 31
0.0
  0
LINE
  8
7
 10
335.893272
 20
-260.3
 30
0.0
 11
336.328452
 21
-259.8
 31
0.0
  0
LINE
  8
7
 10
336.328452
 20
-259.8
 30
0.0
 11
336.688922
 21
-259.1
 31
0.0
  0
LINE
  8
7
 10
336.688922
 20
-259.1
 30
0.0
 11
336.961822
 21
-258.3
 31
0.0
  0
LINE
  8
7
 10
331.890012
 20
-260.8
 30
0.0
 11
332.579542
 21
-261.3
 31
0.0
  0
LINE
  8
7
 10
332.579542
 20
-261.3
 30
0.0
 11
333.324562
 21
-261.6
 31
0.0
  0
LINE
  8
7
 10
333.199962
 20
-260.8
 30
0.0
 11
333.743532
 21
-261.1
 31
0.0
  0
LINE
  8
7
 10
330.465342
 20
-258.2
 30
0.0
 11
330.853152
 21
-258.2
 31
0.0
  0
LINE
  8
7
 10
333.324562
 20
-261.6
 30
0.0
 11
334.097482
 21
-261.7
 31
0.0
  0
LINE
  8
7
 10
333.743532
 20
-261.1
 30
0.0
 11
334.304522
 21
-261.1
 31
0.0
  0
LINE
  8
7
 10
335.989542
 20
-257.7
 30
0.0
 11
336.083852
 21
-257.0
 31
0.0
  0
LINE
  8
7
 10
330.853152
 20
-258.2
 30
0.0
 11
330.853152
 21
-256.7
 31
0.0
  0
LINE
  8
7
 10
332.533362
 20
-260.8
 30
0.0
 11
333.844182
 21
-256.4
 31
0.0
  0
LINE
  8
7
 10
334.653942
 20
-260.8
 30
0.0
 11
335.964762
 21
-256.4
 31
0.0
  0
LINE
  8
7
 10
328.644092
 20
-252.0
 30
0.0
 11
327.722862
 21
-256.4
 31
0.0
  0
LINE
  8
7
 10
329.457032
 20
-256.7
 30
0.0
 11
329.457032
 21
-256.1
 31
0.0
  0
ARC
  8
7
 10
328.913932
 20
-264.2
 30
0.0
 40
1.000000
 50
180.000000
 51
270.000000
  0
LINE
  8
7
 10
327.913932
 20
-261.8
 30
0.0
 11
327.913932
 21
-264.2
 31
0.0
  0
LINE
  8
7
 10
327.913932
 20
-257.3
 30
0.0
 11
327.913932
 21
-261.8
 31
0.0
  0
LINE
  8
7
 10
329.620832
 20
-260.8
 30
0.0
 11
329.620832
 21
-261.8
 31
0.0
  0
ARC
  8
7
 10
325.632352
 20
-264.2
 30
0.0
 40
1.000000
 50
180.000000
 51
270.000000
  0
LINE
  8
7
 10
324.632352
 20
-261.8
 30
0.0
 11
324.632352
 21
-264.2
 31
0.0
  0
LINE
  8
7
 10
328.649292
 20
-260.8
 30
0.0
 11
327.722862
 21
-256.4
 31
0.0
  0
LINE
  8
7
 10
328.644092
 20
-252.0
 30
0.0
 11
334.646062
 21
-252.0
 31
0.0
  0
LINE
  8
7
 10
328.649292
 20
-260.8
 30
0.0
 11
334.653942
 21
-260.8
 31
0.0
  0
LINE
  8
7
 10
329.457032
 20
-256.1
 30
0.0
 11
330.465342
 21
-256.1
 31
0.0
  0
LINE
  8
7
 10
329.457032
 20
-256.7
 30
0.0
 11
330.465342
 21
-256.7
 31
0.0
  0
LINE
  8
7
 10
330.465342
 20
-256.1
 30
0.0
 11
330.465342
 21
-254.4
 31
0.0
  0
LINE
  8
7
 10
330.465342
 20
-258.2
 30
0.0
 11
330.465342
 21
-256.7
 31
0.0
  0
LINE
  8
7
 10
321.987462
 20
-255.7
 30
0.0
 11
321.892522
 21
-255.1
 31
0.0
  0
LINE
  8
7
 10
321.892522
 20
-255.1
 30
0.0
 11
321.747572
 21
-254.6
 31
0.0
  0
LINE
  8
7
 10
321.747572
 20
-254.6
 30
0.0
 11
321.555772
 21
-254.1
 31
0.0
  0
LINE
  8
7
 10
321.555772
 20
-254.1
 30
0.0
 11
321.321302
 21
-253.6
 31
0.0
  0
LINE
  8
7
 10
322.134892
 20
-253.0
 30
0.0
 11
321.784842
 21
-252.5
 31
0.0
  0
LINE
  8
7
 10
321.784842
 20
-252.5
 30
0.0
 11
321.399582
 21
-252.2
 31
0.0
  0
LINE
  8
7
 10
321.399582
 20
-252.2
 30
0.0
 11
320.987502
 21
-252.0
 31
0.0
  0
LINE
  8
7
 10
320.986692
 20
-252.0
 30
0.0
 11
321.898002
 21
-256.4
 31
0.0
  0
LINE
  8
7
 10
318.412222
 20
-252.0
 30
0.0
 11
319.323542
 21
-256.4
 31
0.0
  0
LINE
  8
7
 10
318.523982
 20
-256.1
 30
0.0
 11
318.523982
 21
-256.7
 31
0.0
  0
LINE
  8
7
 10
317.086402
 20
-256.1
 30
0.0
 11
318.523982
 21
-256.1
 31
0.0
  0
LINE
  8
7
 10
317.086402
 20
-256.7
 30
0.0
 11
318.523982
 21
-256.7
 31
0.0
  0
LINE
  8
7
 10
316.698582
 20
-256.1
 30
0.0
 11
316.698582
 21
-254.5
 31
0.0
  0
LINE
  8
7
 10
317.086402
 20
-256.1
 30
0.0
 11
317.086402
 21
-254.5
 31
0.0
  0
LINE
  8
7
 10
317.086402
 20
-254.5
 30
0.0
 11
316.698582
 21
-254.5
 31
0.0
  0
LINE
  8
7
 10
321.898002
 20
-256.4
 30
0.0
 11
319.323542
 21
-256.4
 31
0.0
  0
LINE
  8
7
 10
320.975832
 20
-261.0
 30
0.0
 11
321.392212
 21
-260.7
 31
0.0
  0
LINE
  8
7
 10
321.392212
 20
-260.7
 30
0.0
 11
321.781442
 21
-260.4
 31
0.0
  0
LINE
  8
7
 10
321.781442
 20
-260.4
 30
0.0
 11
322.134892
 21
-260.0
 31
0.0
  0
LINE
  8
7
 10
321.262932
 20
-259.5
 30
0.0
 11
321.518912
 21
-259.1
 31
0.0
  0
LINE
  8
7
 10
321.518912
 20
-259.1
 30
0.0
 11
321.728182
 21
-258.5
 31
0.0
  0
LINE
  8
7
 10
321.728182
 20
-258.5
 30
0.0
 11
321.885642
 21
-257.9
 31
0.0
  0
LINE
  8
7
 10
321.885642
 20
-257.9
 30
0.0
 11
321.987462
 21
-257.3
 31
0.0
  0
LINE
  8
7
 10
319.270732
 20
-261.8
 30
0.0
 11
319.270732
 21
-264.2
 31
0.0
  0
LINE
  8
7
 10
319.270732
 20
-260.8
 30
0.0
 11
319.270732
 21
-261.8
 31
0.0
  0
LINE
  8
7
 10
316.698582
 20
-258.2
 30
0.0
 11
317.086402
 21
-258.2
 31
0.0
  0
ARC
  8
7
 10
320.270732
 20
-264.2
 30
0.0
 40
1.000000
 50
180.000000
 51
270.000000
  0
LINE
  8
7
 10
322.752962
 20
-261.8
 30
0.0
 11
322.752962
 21
-251.8
 31
0.0
  0
LINE
  8
7
 10
322.134892
 20
-261.8
 30
0.0
 11
322.134892
 21
-251.8
 31
0.0
  0
LINE
  8
7
 10
321.001332
 20
-260.8
 30
0.0
 11
321.898002
 21
-256.4
 31
0.0
  0
LINE
  8
7
 10
318.426252
 20
-260.8
 30
0.0
 11
319.322932
 21
-256.4
 31
0.0
  0
LINE
  8
7
 10
316.698582
 20
-258.2
 30
0.0
 11
316.698582
 21
-256.7
 31
0.0
  0
LINE
  8
7
 10
317.086402
 20
-258.2
 30
0.0
 11
317.086402
 21
-256.7
 31
0.0
  0
LINE
  8
7
 10
315.734504
 20
-252.0
 30
0.0
 11
314.813284
 21
-256.4
 31
0.0
  0
LINE
  8
7
 10
315.486904
 20
-256.7
 30
0.0
 11
315.486904
 21
-256.1
 31
0.0
  0
LINE
  8
7
 10
315.739714
 20
-260.8
 30
0.0
 11
314.813284
 21
-256.4
 31
0.0
  0
LINE
  8
7
 10
320.986692
 20
-252.0
 30
0.0
 11
315.734504
 21
-252.0
 31
0.0
  0
LINE
  8
7
 10
315.739714
 20
-260.8
 30
0.0
 11
321.001332
 21
-260.8
 31
0.0
  0
LINE
  8
7
 10
315.486904
 20
-256.1
 30
0.0
 11
316.698582
 21
-256.1
 31
0.0
  0
LINE
  8
7
 10
315.486904
 20
-256.7
 30
0.0
 11
316.698582
 21
-256.7
 31
0.0
  0
LINE
  8
7
 10
324.632352
 20
-261.8
 30
0.0
 11
319.270732
 21
-261.8
 31
0.0
  0
LINE
  8
7
 10
324.632352
 20
-251.8
 30
0.0
 11
319.270732
 21
-251.8
 31
0.0
  0
LINE
  8
7
 10
327.913932
 20
-245.3
 30
0.0
 11
327.913932
 21
-255.5
 31
0.0
  0
LINE
  8
7
 10
329.620832
 20
-245.3
 30
0.0
 11
329.620832
 21
-252.0
 31
0.0
  0
LINE
  8
7
 10
326.509652
 20
-261.8
 30
0.0
 11
326.509652
 21
-245.3
 31
0.0
  0
LINE
  8
7
 10
319.270732
 20
-245.3
 30
0.0
 11
319.270732
 21
-252.0
 31
0.0
  0
LINE
  8
7
 10
324.632352
 20
-261.8
 30
0.0
 11
324.632352
 21
-245.3
 31
0.0
  0
LINE
  8
7
 10
239.395576
 20
-253.7
 30
0.0
 11
239.783388
 21
-253.7
 31
0.0
  0
LINE
  8
7
 10
239.395576
 20
-255.3
 30
0.0
 11
239.395576
 21
-253.7
 31
0.0
  0
LINE
  8
7
 10
239.783388
 20
-255.3
 30
0.0
 11
239.783388
 21
-253.7
 31
0.0
  0
LINE
  8
7
 10
241.141071
 20
-255.9
 30
0.0
 11
241.141071
 21
-255.3
 31
0.0
  0
LINE
  8
7
 10
241.141071
 20
-255.9
 30
0.0
 11
239.783388
 21
-255.9
 31
0.0
  0
LINE
  8
7
 10
241.141071
 20
-255.3
 30
0.0
 11
239.783388
 21
-255.3
 31
0.0
  0
LINE
  8
7
 10
237.957992
 20
-255.3
 30
0.0
 11
237.957992
 21
-255.9
 31
0.0
  0
LINE
  8
7
 10
237.569752
 20
-251.2
 30
0.0
 11
236.658434
 21
-255.6
 31
0.0
  0
LINE
  8
7
 10
239.395576
 20
-255.9
 30
0.0
 11
237.957992
 21
-255.9
 31
0.0
  0
LINE
  8
7
 10
239.395576
 20
-255.3
 30
0.0
 11
237.957992
 21
-255.3
 31
0.0
  0
LINE
  8
7
 10
239.711246
 20
-261.1
 30
0.0
 11
239.711246
 21
-263.5
 31
0.0
  0
LINE
  8
7
 10
239.711246
 20
-260.0
 30
0.0
 11
239.711246
 21
-261.1
 31
0.0
  0
LINE
  8
7
 10
239.783388
 20
-257.5
 30
0.0
 11
239.395576
 21
-257.5
 31
0.0
  0
ARC
  8
7
 10
238.711246
 20
-263.5
 30
0.0
 40
1.000000
 50
270.000000
 51
360.000000
  0
LINE
  8
7
 10
239.395576
 20
-257.5
 30
0.0
 11
239.395576
 21
-255.9
 31
0.0
  0
LINE
  8
7
 10
239.783388
 20
-257.5
 30
0.0
 11
239.783388
 21
-255.9
 31
0.0
  0
LINE
  8
7
 10
237.555721
 20
-260.0
 30
0.0
 11
236.659046
 21
-255.6
 31
0.0
  0
LINE
  8
7
 10
241.393470
 20
-251.2
 30
0.0
 11
242.314691
 21
-255.6
 31
0.0
  0
LINE
  8
7
 10
241.388265
 20
-260.0
 30
0.0
 11
242.314691
 21
-255.6
 31
0.0
  0
LINE
  8
7
 10
239.711246
 20
-244.6
 30
0.0
 11
239.711246
 21
-251.2
 31
0.0
  0
ARC
  8
7
 10
231.817293
 20
-218.2
 30
0.0
 40
1.500000
 50
270.000000
 51
360.000000
  0
LINE
  8
7
 10
233.317293
 20
-218.2
 30
0.0
 11
233.317293
 21
-210.7
 31
0.0
  0
LINE
  8
7
 10
225.840758
 20
-219.7
 30
0.0
 11
225.840758
 21
-244.6
 31
0.0
  0
LINE
  8
7
 10
233.317293
 20
-244.6
 30
0.0
 11
233.317293
 21
-216.3
 31
0.0
  0
ARC
  8
7
 10
209.817293
 20
-209.7
 30
0.0
 40
1.000000
 50
180.000000
 51
270.000000
  0
LINE
  8
7
 10
213.817293
 20
-213.7
 30
0.0
 11
209.817293
 21
-213.7
 31
0.0
  0
LINE
  8
7
 10
213.817293
 20
-218.2
 30
0.0
 11
213.817293
 21
-210.7
 31
0.0
  0
ARC
  8
7
 10
215.317293
 20
-218.2
 30
0.0
 40
1.500000
 50
180.000000
 51
270.000000
  0
LINE
  8
7
 10
215.317293
 20
-219.7
 30
0.0
 11
231.817293
 21
-219.7
 31
0.0
  0
LINE
  8
7
 10
233.317293
 20
-210.7
 30
0.0
 11
209.817293
 21
-210.7
 31
0.0
  0
LINE
  8
7
 10
233.660671
 20
-252.8
 30
0.0
 11
233.376323
 21
-253.4
 31
0.0
  0
LINE
  8
7
 10
233.376323
 20
-253.4
 30
0.0
 11
233.159073
 21
-254.1
 31
0.0
  0
LINE
  8
7
 10
233.159073
 20
-254.1
 30
0.0
 11
233.016179
 21
-254.8
 31
0.0
  0
LINE
  8
7
 10
233.016179
 20
-254.8
 30
0.0
 11
232.952418
 21
-255.5
 31
0.0
  0
LINE
  8
7
 10
233.995284
 20
-251.2
 30
0.0
 11
233.083967
 21
-255.6
 31
0.0
  0
LINE
  8
7
 10
232.952418
 20
-255.5
 30
0.0
 11
232.967142
 21
-256.2
 31
0.0
  0
LINE
  8
7
 10
233.994473
 20
-251.2
 30
0.0
 11
233.477312
 21
-251.5
 31
0.0
  0
LINE
  8
7
 10
233.477312
 20
-251.5
 30
0.0
 11
233.006685
 21
-252.0
 31
0.0
  0
LINE
  8
7
 10
233.006685
 20
-252.0
 30
0.0
 11
232.598949
 21
-252.6
 31
0.0
  0
LINE
  8
7
 10
232.598949
 20
-252.6
 30
0.0
 11
232.268274
 21
-253.3
 31
0.0
  0
LINE
  8
7
 10
233.054863
 20
-256.9
 30
0.0
 11
233.212933
 21
-257.6
 31
0.0
  0
LINE
  8
7
 10
233.212933
 20
-257.6
 30
0.0
 11
233.436578
 21
-258.2
 31
0.0
  0
LINE
  8
7
 10
233.436578
 20
-258.2
 30
0.0
 11
233.719044
 21
-258.8
 31
0.0
  0
LINE
  8
7
 10
232.268274
 20
-258.1
 30
0.0
 11
232.600976
 21
-258.8
 31
0.0
  0
LINE
  8
7
 10
232.600976
 20
-258.8
 30
0.0
 11
233.011509
 21
-259.4
 31
0.0
  0
LINE
  8
7
 10
233.011509
 20
-259.4
 30
0.0
 11
233.485450
 21
-259.9
 31
0.0
  0
LINE
  8
7
 10
233.485450
 20
-259.9
 30
0.0
 11
234.006145
 21
-260.2
 31
0.0
  0
ARC
  8
7
 10
228.514295
 20
-263.5
 30
0.0
 40
1.000000
 50
270.000000
 51
360.000000
  0
LINE
  8
7
 10
229.514295
 20
-261.1
 30
0.0
 11
229.514295
 21
-263.5
 31
0.0
  0
LINE
  8
7
 10
232.967142
 20
-256.2
 30
0.0
 11
233.054863
 21
-256.9
 31
0.0
  0
LINE
  8
7
 10
233.980642
 20
-260.0
 30
0.0
 11
233.083967
 21
-255.6
 31
0.0
  0
LINE
  8
7
 10
222.662452
 20
-251.2
 30
0.0
 11
222.662452
 21
-250.4
 31
0.0
  0
LINE
  8
7
 10
223.579571
 20
-251.1
 30
0.0
 11
223.579571
 21
-252.4
 31
0.0
  0
LINE
  8
7
 10
222.524942
 20
-255.9
 30
0.0
 11
222.524942
 21
-255.3
 31
0.0
  0
LINE
  8
7
 10
222.524942
 20
-255.9
 30
0.0
 11
221.516629
 21
-255.9
 31
0.0
  0
LINE
  8
7
 10
222.524942
 20
-255.3
 30
0.0
 11
221.516629
 21
-255.3
 31
0.0
  0
LINE
  8
7
 10
223.337887
 20
-251.2
 30
0.0
 11
224.259108
 21
-255.6
 31
0.0
  0
LINE
  8
7
 10
223.579571
 20
-251.1
 30
0.0
 11
226.612941
 21
-251.1
 31
0.0
  0
LINE
  8
7
 10
225.788044
 20
-261.1
 30
0.0
 11
225.788044
 21
-263.5
 31
0.0
  0
LINE
  8
7
 10
223.579571
 20
-258.9
 30
0.0
 11
223.579571
 21
-261.1
 31
0.0
  0
ARC
  8
7
 10
224.788044
 20
-263.5
 30
0.0
 40
1.000000
 50
270.000000
 51
360.000000
  0
LINE
  8
7
 10
224.780443
 20
-251.1
 30
0.0
 11
224.780443
 21
-261.1
 31
0.0
  0
LINE
  8
7
 10
226.612941
 20
-251.1
 30
0.0
 11
226.612941
 21
-261.1
 31
0.0
  0
LINE
  8
7
 10
223.332682
 20
-260.0
 30
0.0
 11
224.259108
 21
-255.6
 31
0.0
  0
LINE
  8
7
 10
219.456500
 20
-251.2
 30
0.0
 11
218.137792
 21
-255.6
 31
0.0
  0
LINE
  8
7
 10
219.991233
 20
-255.3
 30
0.0
 11
219.991233
 21
-255.9
 31
0.0
  0
LINE
  8
7
 10
221.128817
 20
-255.9
 30
0.0
 11
219.991233
 21
-255.9
 31
0.0
  0
LINE
  8
7
 10
221.128817
 20
-255.3
 30
0.0
 11
219.991233
 21
-255.3
 31
0.0
  0
LINE
  8
7
 10
218.589962
 20
-251.2
 30
0.0
 11
218.037860
 21
-251.0
 31
0.0
  0
LINE
  8
7
 10
219.927973
 20
-251.2
 30
0.0
 11
219.222238
 21
-250.8
 31
0.0
  0
LINE
  8
7
 10
219.222238
 20
-250.8
 30
0.0
 11
218.467685
 21
-250.5
 31
0.0
  0
LINE
  8
7
 10
217.335916
 20
-251.2
 30
0.0
 11
216.017208
 21
-255.6
 31
0.0
  0
LINE
  8
7
 10
217.475478
 20
-251.0
 30
0.0
 11
216.922863
 21
-251.2
 31
0.0
  0
LINE
  8
7
 10
216.922863
 20
-251.2
 30
0.0
 11
216.399712
 21
-251.5
 31
0.0
  0
LINE
  8
7
 10
216.399712
 20
-251.5
 30
0.0
 11
215.924674
 21
-252.0
 31
0.0
  0
LINE
  8
7
 10
215.924674
 20
-252.0
 30
0.0
 11
215.514681
 21
-252.6
 31
0.0
  0
LINE
  8
7
 10
215.514681
 20
-252.6
 30
0.0
 11
215.184349
 21
-253.3
 31
0.0
  0
LINE
  8
7
 10
215.184349
 20
-253.3
 30
0.0
 11
214.945450
 21
-254.1
 31
0.0
  0
LINE
  8
7
 10
214.945450
 20
-254.1
 30
0.0
 11
214.806502
 21
-254.9
 31
0.0
  0
LINE
  8
7
 10
214.806502
 20
-254.9
 30
0.0
 11
214.772457
 21
-255.8
 31
0.0
  0
LINE
  8
7
 10
217.029866
 20
-252.2
 30
0.0
 11
216.666399
 21
-252.7
 31
0.0
  0
LINE
  8
7
 10
216.666399
 20
-252.7
 30
0.0
 11
216.361070
 21
-253.3
 31
0.0
  0
LINE
  8
7
 10
216.361070
 20
-253.3
 30
0.0
 11
216.124632
 21
-253.9
 31
0.0
  0
LINE
  8
7
 10
216.124632
 20
-253.9
 30
0.0
 11
215.965409
 21
-254.7
 31
0.0
  0
LINE
  8
7
 10
215.965409
 20
-254.7
 30
0.0
 11
215.889009
 21
-255.4
 31
0.0
  0
LINE
  8
7
 10
215.889009
 20
-255.4
 30
0.0
 11
215.898123
 21
-256.2
 31
0.0
  0
LINE
  8
7
 10
217.692263
 20
-250.5
 30
0.0
 11
216.924694
 21
-250.6
 31
0.0
  0
LINE
  8
7
 10
216.924694
 20
-250.6
 30
0.0
 11
216.193407
 21
-251.0
 31
0.0
  0
LINE
  8
7
 10
216.193407
 20
-251.0
 30
0.0
 11
215.525491
 21
-251.5
 31
0.0
  0
LINE
  8
7
 10
215.525491
 20
-251.5
 30
0.0
 11
214.945684
 21
-252.2
 31
0.0
  0
LINE
  8
7
 10
216.017208
 20
-255.6
 30
0.0
 11
218.137792
 21
-255.6
 31
0.0
  0
LINE
  8
7
 10
218.037860
 20
-251.0
 30
0.0
 11
217.475478
 21
-251.0
 31
0.0
  0
LINE
  8
7
 10
218.467685
 20
-250.5
 30
0.0
 11
217.692263
 21
-250.5
 31
0.0
  0
LINE
  8
7
 10
218.238445
 20
-260.3
 30
0.0
 11
218.782007
 21
-260.0
 31
0.0
  0
LINE
  8
7
 10
218.657409
 20
-260.8
 30
0.0
 11
219.402433
 21
-260.5
 31
0.0
  0
LINE
  8
7
 10
219.402433
 20
-260.5
 30
0.0
 11
220.091966
 21
-260.0
 31
0.0
  0
LINE
  8
7
 10
214.844529
 20
-256.7
 30
0.0
 11
215.020148
 21
-257.5
 31
0.0
  0
LINE
  8
7
 10
215.020148
 20
-257.5
 30
0.0
 11
215.293055
 21
-258.3
 31
0.0
  0
LINE
  8
7
 10
215.293055
 20
-258.3
 30
0.0
 11
215.653522
 21
-259.0
 31
0.0
  0
LINE
  8
7
 10
215.653522
 20
-259.0
 30
0.0
 11
216.088699
 21
-259.5
 31
0.0
  0
LINE
  8
7
 10
216.088699
 20
-259.5
 30
0.0
 11
216.583075
 21
-260.0
 31
0.0
  0
LINE
  8
7
 10
216.583075
 20
-260.0
 30
0.0
 11
217.119028
 21
-260.2
 31
0.0
  0
LINE
  8
7
 10
217.119028
 20
-260.2
 30
0.0
 11
217.677453
 21
-260.3
 31
0.0
  0
LINE
  8
7
 10
215.992428
 20
-257.0
 30
0.0
 11
216.168605
 21
-257.7
 31
0.0
  0
LINE
  8
7
 10
216.168605
 20
-257.7
 30
0.0
 11
216.420449
 21
-258.3
 31
0.0
  0
LINE
  8
7
 10
216.420449
 20
-258.3
 30
0.0
 11
216.739093
 21
-258.9
 31
0.0
  0
LINE
  8
7
 10
216.739093
 20
-258.9
 30
0.0
 11
217.113315
 21
-259.3
 31
0.0
  0
LINE
  8
7
 10
215.079695
 20
-259.4
 30
0.0
 11
215.683440
 21
-260.0
 31
0.0
  0
LINE
  8
7
 10
215.683440
 20
-260.0
 30
0.0
 11
216.369445
 21
-260.5
 31
0.0
  0
LINE
  8
7
 10
216.369445
 20
-260.5
 30
0.0
 11
217.112299
 21
-260.8
 31
0.0
  0
LINE
  8
7
 10
217.677453
 20
-260.3
 30
0.0
 11
218.238445
 21
-260.3
 31
0.0
  0
LINE
  8
7
 10
217.112299
 20
-260.8
 30
0.0
 11
217.884488
 21
-260.9
 31
0.0
  0
LINE
  8
7
 10
217.884488
 20
-260.9
 30
0.0
 11
218.657409
 21
-260.8
 31
0.0
  0
LINE
  8
7
 10
217.328027
 20
-260.0
 30
0.0
 11
216.017208
 21
-255.6
 31
0.0
  0
LINE
  8
7
 10
219.448611
 20
-260.0
 30
0.0
 11
218.137792
 21
-255.6
 31
0.0
  0
LINE
  8
7
 10
214.772457
 20
-255.8
 30
0.0
 11
214.844529
 21
-256.7
 31
0.0
  0
LINE
  8
7
 10
215.898123
 20
-256.2
 30
0.0
 11
215.992428
 21
-257.0
 31
0.0
  0
LINE
  8
7
 10
213.452221
 20
-251.7
 30
0.0
 11
213.452221
 21
-250.4
 31
0.0
  0
LINE
  8
7
 10
213.042806
 20
-251.7
 30
0.0
 11
213.452221
 21
-251.7
 31
0.0
  0
LINE
  8
7
 10
214.132245
 20
-253.8
 30
0.0
 11
213.928743
 21
-254.8
 31
0.0
  0
LINE
  8
7
 10
213.928743
 20
-254.8
 30
0.0
 11
213.872494
 21
-255.8
 31
0.0
  0
ARC
  8
7
 10
209.564828
 20
-263.5
 30
0.0
 40
1.000000
 50
270.000000
 51
360.000000
  0
LINE
  8
7
 10
210.564828
 20
-254.5
 30
0.0
 11
210.564828
 21
-263.5
 31
0.0
  0
LINE
  8
7
 10
213.042806
 20
-261.1
 30
0.0
 11
213.042806
 21
-251.7
 31
0.0
  0
LINE
  8
7
 10
213.872494
 20
-255.8
 30
0.0
 11
213.965581
 21
-256.8
 31
0.0
  0
LINE
  8
7
 10
214.945684
 20
-252.2
 30
0.0
 11
214.475463
 21
-253.0
 31
0.0
  0
LINE
  8
7
 10
214.475463
 20
-253.0
 30
0.0
 11
214.132245
 21
-253.8
 31
0.0
  0
LINE
  8
7
 10
213.965581
 20
-256.8
 30
0.0
 11
214.204558
 21
-257.8
 31
0.0
  0
LINE
  8
7
 10
214.204558
 20
-257.8
 30
0.0
 11
214.580572
 21
-258.6
 31
0.0
  0
LINE
  8
7
 10
214.580572
 20
-258.6
 30
0.0
 11
215.079695
 21
-259.4
 31
0.0
  0
LINE
  8
7
 10
210.564828
 20
-261.1
 30
0.0
 11
226.612941
 21
-261.1
 31
0.0
  0
LINE
  8
7
 10
222.662452
 20
-250.4
 30
0.0
 11
213.452221
 21
-250.4
 31
0.0
  0
LINE
  8
7
 10
221.516629
 20
-257.4
 30
0.0
 11
221.128817
 21
-257.4
 31
0.0
  0
LINE
  8
7
 10
221.128817
 20
-257.4
 30
0.0
 11
221.128817
 21
-255.9
 31
0.0
  0
LINE
  8
7
 10
221.128817
 20
-255.3
 30
0.0
 11
221.128817
 21
-253.7
 31
0.0
  0
LINE
  8
7
 10
221.128817
 20
-253.7
 30
0.0
 11
221.516629
 21
-253.7
 31
0.0
  0
LINE
  8
7
 10
221.516629
 20
-257.4
 30
0.0
 11
221.516629
 21
-255.9
 31
0.0
  0
LINE
  8
7
 10
221.516629
 20
-255.3
 30
0.0
 11
221.516629
 21
-253.7
 31
0.0
  0
LINE
  8
7
 10
223.332682
 20
-260.0
 30
0.0
 11
217.328027
 21
-260.0
 31
0.0
  0
LINE
  8
7
 10
223.337887
 20
-251.2
 30
0.0
 11
217.335916
 21
-251.2
 31
0.0
  0
LINE
  8
7
 10
220.817293
 20
-265.5
 30
0.0
 11
221.217293
 21
-265.5
 31
0.0
  0
LINE
  8
7
 10
220.817293
 20
-264.5
 30
0.0
 11
220.817293
 21
-265.5
 31
0.0
  0
LINE
  8
7
 10
230.817293
 20
-264.5
 30
0.0
 11
220.817293
 21
-264.5
 31
0.0
  0
LINE
  8
7
 10
230.817293
 20
-265.5
 30
0.0
 11
230.817293
 21
-264.5
 31
0.0
  0
LINE
  8
7
 10
230.417294
 20
-265.5
 30
0.0
 11
230.817293
 21
-265.5
 31
0.0
  0
ARC
  8
7
 10
222.367294
 20
-267.6
 30
0.0
 40
1.853133
 50
270.0
 51
308.357670
  0
ARC
  8
7
 10
225.817293
 20
-262.6
 30
0.0
 40
6.812498
 50
250.268330
 51
289.731580
  0
ARC
  8
7
 10
229.267292
 20
-267.6
 30
0.0
 40
1.853135
 50
231.642265
 51
270.0
  0
LINE
  8
7
 10
223.517293
 20
-269.1
 30
0.0
 11
223.517293
 21
-265.5
 31
0.0
  0
LINE
  8
7
 10
228.117293
 20
-269.1
 30
0.0
 11
228.117293
 21
-265.5
 31
0.0
  0
LINE
  8
7
 10
230.417293
 20
-269.1
 30
0.0
 11
230.417293
 21
-265.5
 31
0.0
  0
LINE
  8
7
 10
229.717288
 20
-269.5
 30
0.0
 11
230.417288
 21
-269.1
 31
0.0
  0
LINE
  8
7
 10
221.917295
 20
-269.5
 30
0.0
 11
229.717292
 21
-269.5
 31
0.0
  0
LINE
  8
7
 10
221.217299
 20
-269.1
 30
0.0
 11
221.917298
 21
-269.5
 31
0.0
  0
LINE
  8
7
 10
221.217294
 20
-265.5
 30
0.0
 11
221.217294
 21
-269.1
 31
0.0
  0
LINE
  8
7
 10
230.417294
 20
-265.5
 30
0.0
 11
221.217293
 21
-265.5
 31
0.0
  0
LINE
  8
7
 62
     4
  6
DASHED
 10
207.817293
 20
-214.1
 30
0.0
 11
207.817293
 21
-264.5
 31
0.0
  0
LINE
  8
7
 10
229.514295
 20
-244.6
 30
0.0
 11
229.514295
 21
-261.1
 31
0.0
  0
LINE
  8
7
 10
231.046384
 20
-244.6
 30
0.0
 11
231.046384
 21
-261.1
 31
0.0
  0
LINE
  8
7
 10
232.268274
 20
-244.6
 30
0.0
 11
232.268274
 21
-261.1
 31
0.0
  0
LINE
  8
7
 10
225.788044
 20
-244.6
 30
0.0
 11
225.788044
 21
-251.1
 31
0.0
  0
LINE
  8
7
 10
210.564828
 20
-254.5
 30
0.0
 11
210.564828
 21
-244.5
 31
0.0
  0
LINE
  8
7
 10
239.711246
 20
-250.4
 30
0.0
 11
232.268274
 21
-250.4
 31
0.0
  0
LINE
  8
7
 10
229.514295
 20
-261.1
 30
0.0
 11
239.711246
 21
-261.1
 31
0.0
  0
LINE
  8
7
 10
207.717975
 20
-244.6
 30
0.0
 11
239.711246
 21
-244.6
 31
0.0
  0
LINE
  8
7
 10
241.388265
 20
-260.0
 30
0.0
 11
233.980642
 21
-260.0
 31
0.0
  0
LINE
  8
7
 10
233.995284
 20
-251.2
 30
0.0
 11
241.393470
 21
-251.2
 31
0.0
  0
LINE
  8
7
 10
233.083967
 20
-255.6
 30
0.0
 11
236.658434
 21
-255.6
 31
0.0
  0
POINT
  8
7
 10
242.314688
 20
-255.6
 30
0.0
  0
LINE
  8
7
 10
225.066741
 20
-208.6
 30
0.0
 11
225.817293
 21
-209.9
 31
0.0
  0
LINE
  8
7
 10
225.817293
 20
-208.6
 30
0.0
 11
226.567846
 21
-209.9
 31
0.0
  0
LINE
  8
7
 10
220.817293
 20
-210.7
 30
0.0
 11
220.817293
 21
-209.9
 31
0.0
  0
LINE
  8
7
 10
230.817293
 20
-209.9
 30
0.0
 11
230.817293
 21
-210.7
 31
0.0
  0
LINE
  8
7
 10
220.817293
 20
-210.7
 30
0.0
 11
225.817293
 21
-210.7
 31
0.0
  0
LINE
  8
7
 10
230.817293
 20
-209.9
 30
0.0
 11
220.817293
 21
-209.9
 31
0.0
  0
LINE
  8
7
 10
225.817293
 20
-210.7
 30
0.0
 11
230.817293
 21
-210.7
 31
0.0
  0
POINT
  8
7
 10
225.817293
 20
-210.7
 30
0.0
  0
LINE
  8
7
 10
221.642295
 20
-209.9
 30
0.0
 11
221.642295
 21
-208.6
 31
0.0
  0
LINE
  8
7
 10
229.992292
 20
-209.9
 30
0.0
 11
229.992292
 21
-208.6
 31
0.0
  0
ARC
  8
7
 10
222.917293
 20
-207.3
 30
0.0
 40
1.599999
 50
106.191280
 51
180.0
  0
ARC
  8
7
 10
228.717294
 20
-207.3
 30
0.0
 40
1.599999
 50
0.0
 51
73.808590
  0
LINE
  8
7
 10
221.317293
 20
-208.6
 30
0.0
 11
221.317293
 21
-207.3
 31
0.0
  0
LINE
  8
7
 10
230.317293
 20
-208.6
 30
0.0
 11
230.317293
 21
-207.3
 31
0.0
  0
LINE
  8
7
 10
221.317293
 20
-208.6
 30
0.0
 11
230.317293
 21
-208.6
 31
0.0
  0
POINT
  8
7
 10
225.817293
 20
-210.7
 30
0.0
  0
ARC
  8
7
 10
225.817293
 20
-217.3
 30
0.0
 40
12.0
 50
73.808650
 51
106.191340
  0
LINE
  8
7
 10
208.817293
 20
-209.7
 30
0.0
 11
208.817293
 21
-185.7
 31
0.0
  0
POINT
  8
7
 10
323.810680
 20
-215.2
 30
0.0
  0
POINT
  8
7
 10
314.813284
 20
-256.4
 30
0.0
  0
LINE
  8
7
 10
195.817293
 20
-201.7
 30
0.0
 11
205.817293
 21
-201.7
 31
0.0
  0
LINE
  8
7
 10
195.817293
 20
-195.7
 30
0.0
 11
205.817293
 21
-195.7
 31
0.0
  0
POINT
  8
7
 10
192.817294
 20
-198.7
 30
0.0
  0
LINE
  8
7
 10
189.717294
 20
-201.5
 30
0.0
 11
185.217294
 21
-201.5
 31
0.0
  0
LINE
  8
7
 10
191.217294
 20
-204.4
 30
0.0
 11
191.217294
 21
-204.8
 31
0.0
  0
LINE
  8
7
 10
192.817294
 20
-204.4
 30
0.0
 11
191.217294
 21
-204.4
 31
0.0
  0
LINE
  8
7
 10
192.817294
 20
-192.9
 30
0.0
 11
192.817294
 21
-204.4
 31
0.0
  0
LINE
  8
7
 10
191.217294
 20
-192.9
 30
0.0
 11
192.817294
 21
-192.9
 31
0.0
  0
LINE
  8
7
 10
191.217295
 20
-199.2
 30
0.0
 11
189.717294
 21
-198.7
 31
0.0
  0
LINE
  8
7
 10
191.217293
 20
-198.7
 30
0.0
 11
189.717296
 21
-198.2
 31
0.0
  0
LINE
  8
7
 10
189.717294
 20
-204.8
 30
0.0
 11
189.717294
 21
-204.4
 31
0.0
  0
LINE
  8
7
 10
191.217294
 20
-204.8
 30
0.0
 11
189.717294
 21
-204.8
 31
0.0
  0
LINE
  8
7
 10
191.217293
 20
-192.6
 30
0.0
 11
191.217293
 21
-204.8
 31
0.0
  0
LINE
  8
7
 10
189.717294
 20
-192.6
 30
0.0
 11
191.217294
 21
-192.6
 31
0.0
  0
LINE
  8
7
 10
189.717294
 20
-192.9
 30
0.0
 11
189.717294
 21
-192.6
 31
0.0
  0
LINE
  8
7
 10
189.717294
 20
-195.8
 30
0.0
 11
185.217294
 21
-195.8
 31
0.0
  0
LINE
  8
7
 10
185.217294
 20
-192.9
 30
0.0
 11
189.717294
 21
-192.9
 31
0.0
  0
LINE
  8
7
 10
184.717285
 20
-193.8
 30
0.0
 11
185.217285
 21
-192.9
 31
0.0
  0
LINE
  8
7
 10
184.717297
 20
-203.6
 30
0.0
 11
184.717297
 21
-193.8
 31
0.0
  0
LINE
  8
7
 10
185.217285
 20
-204.4
 30
0.0
 11
184.717285
 21
-203.6
 31
0.0
  0
LINE
  8
7
 10
189.717294
 20
-204.4
 30
0.0
 11
185.217294
 21
-204.4
 31
0.0
  0
LINE
  8
7
 10
189.717294
 20
-192.9
 30
0.0
 11
189.717294
 21
-204.4
 31
0.0
  0
LINE
  8
7
 10
192.817293
 20
-185.7
 30
0.0
 11
195.817293
 21
-185.7
 31
0.0
  0
ARC
  8
7
 10
191.817293
 20
-209.7
 30
0.0
 40
1.000000
 50
270.000000
 51
360.000000
  0
LINE
  8
7
 10
187.817293
 20
-213.7
 30
0.0
 11
191.817293
 21
-213.7
 31
0.0
  0
LINE
  8
7
 10
187.817293
 20
-218.2
 30
0.0
 11
187.817293
 21
-210.7
 31
0.0
  0
ARC
  8
7
 10
186.317293
 20
-218.2
 30
0.0
 40
1.500000
 50
270.000000
 51
360.000000
  0
ARC
  8
7
 10
191.817293
 20
-209.7
 30
0.0
 40
4.000000
 50
270.000000
 51
360.000000
  0
LINE
  8
7
 62
     4
  6
DASHED
 10
193.817293
 20
-214.1
 30
0.0
 11
193.817293
 21
-264.5
 31
0.0
  0
ARC
  8
7
 10
169.817293
 20
-218.2
 30
0.0
 40
1.500000
 50
180.000000
 51
270.000000
  0
LINE
  8
7
 10
168.317293
 20
-218.2
 30
0.0
 11
168.317293
 21
-210.7
 31
0.0
  0
ARC
  8
7
 10
170.317293
 20
-262.5
 30
0.0
 40
2.000000
 50
180.000000
 51
270.000000
  0
LINE
  8
7
 10
168.317293
 20
-254.6
 30
0.0
 11
168.317293
 21
-262.5
 31
0.0
  0
LINE
  8
7
 10
168.317293
 20
-254.6
 30
0.0
 11
168.317293
 21
-215.9
 31
0.0
  0
LINE
  8
7
 10
168.317293
 20
-254.6
 30
0.0
 11
180.317293
 21
-254.6
 31
0.0
  0
LINE
  8
7
 10
180.317293
 20
-254.6
 30
0.0
 11
180.317293
 21
-264.5
 31
0.0
  0
LINE
  8
7
 10
170.317293
 20
-264.5
 30
0.0
 11
238.711246
 21
-264.5
 31
0.0
  0
POINT
  8
7
 10
175.817293
 20
-264.5
 30
0.0
  0
LINE
  8
7
 10
180.817293
 20
-265.5
 30
0.0
 11
180.417294
 21
-265.5
 31
0.0
  0
LINE
  8
7
 10
180.817293
 20
-264.5
 30
0.0
 11
180.817293
 21
-265.5
 31
0.0
  0
LINE
  8
7
 10
170.817293
 20
-264.5
 30
0.0
 11
180.817293
 21
-264.5
 31
0.0
  0
LINE
  8
7
 10
170.817293
 20
-265.5
 30
0.0
 11
170.817293
 21
-264.5
 31
0.0
  0
LINE
  8
7
 10
171.217293
 20
-265.5
 30
0.0
 11
170.817293
 21
-265.5
 31
0.0
  0
LINE
  8
7
 10
178.117293
 20
-269.1
 30
0.0
 11
178.117293
 21
-265.5
 31
0.0
  0
LINE
  8
7
 10
173.517293
 20
-269.1
 30
0.0
 11
173.517293
 21
-265.5
 31
0.0
  0
LINE
  8
7
 10
171.217294
 20
-269.1
 30
0.0
 11
171.217294
 21
-265.5
 31
0.0
  0
LINE
  8
7
 10
171.917298
 20
-269.5
 30
0.0
 11
171.217299
 21
-269.1
 31
0.0
  0
LINE
  8
7
 10
179.717292
 20
-269.5
 30
0.0
 11
171.917295
 21
-269.5
 31
0.0
  0
LINE
  8
7
 10
180.417288
 20
-269.1
 30
0.0
 11
179.717288
 21
-269.5
 31
0.0
  0
LINE
  8
7
 10
180.417293
 20
-265.5
 30
0.0
 11
180.417293
 21
-269.1
 31
0.0
  0
LINE
  8
7
 10
171.217293
 20
-265.5
 30
0.0
 11
180.417294
 21
-265.5
 31
0.0
  0
LINE
  8
7
 10
186.317293
 20
-219.7
 30
0.0
 11
169.817293
 21
-219.7
 31
0.0
  0
LINE
  8
7
 10
168.317293
 20
-210.7
 30
0.0
 11
191.817293
 21
-210.7
 31
0.0
  0
POINT
  8
7
 10
173.717297
 20
-271.0
 30
0.0
  0
POINT
  8
7
 10
170.317287
 20
-264.5
 30
0.0
  0
LINE
  8
7
 10
176.567846
 20
-208.6
 30
0.0
 11
175.817293
 21
-209.9
 31
0.0
  0
LINE
  8
7
 10
175.817293
 20
-208.6
 30
0.0
 11
175.066741
 21
-209.9
 31
0.0
  0
LINE
  8
7
 10
180.817293
 20
-210.7
 30
0.0
 11
180.817293
 21
-209.9
 31
0.0
  0
LINE
  8
7
 10
170.817293
 20
-209.9
 30
0.0
 11
170.817293
 21
-210.7
 31
0.0
  0
LINE
  8
7
 10
180.817293
 20
-210.7
 30
0.0
 11
175.817293
 21
-210.7
 31
0.0
  0
LINE
  8
7
 10
170.817293
 20
-209.9
 30
0.0
 11
180.817293
 21
-209.9
 31
0.0
  0
LINE
  8
7
 10
175.817293
 20
-210.7
 30
0.0
 11
170.817293
 21
-210.7
 31
0.0
  0
POINT
  8
7
 10
175.817293
 20
-210.7
 30
0.0
  0
LINE
  8
7
 10
179.992292
 20
-209.9
 30
0.0
 11
179.992292
 21
-208.6
 31
0.0
  0
LINE
  8
7
 10
171.642295
 20
-209.9
 30
0.0
 11
171.642295
 21
-208.6
 31
0.0
  0
LINE
  8
7
 10
180.317293
 20
-208.6
 30
0.0
 11
180.317293
 21
-207.3
 31
0.0
  0
LINE
  8
7
 10
171.317293
 20
-208.6
 30
0.0
 11
171.317293
 21
-207.3
 31
0.0
  0
LINE
  8
7
 10
180.317293
 20
-208.6
 30
0.0
 11
171.317293
 21
-208.6
 31
0.0
  0
POINT
  8
7
 10
175.817293
 20
-210.7
 30
0.0
  0
LINE
  8
7
 10
192.817293
 20
-209.7
 30
0.0
 11
192.817293
 21
-185.7
 31
0.0
  0
LINE
  8
7
 10
195.817293
 20
-209.7
 30
0.0
 11
195.817293
 21
-185.7
 31
0.0
  0
LINE
  8
7
 10
205.817293
 20
-209.7
 30
0.0
 11
205.817293
 21
-185.7
 31
0.0
  0
POINT
  8
7
 10
170.317287
 20
-264.5
 30
0.0
  0
POINT
  8
7
 10
192.817295
 20
-185.7
 30
0.0
  0
LINE
  8
7
 10
207.717975
 20
-264.5
 30
0.0
 11
207.717975
 21
-254.6
 31
0.0
  0
LINE
  8
7
 10
187.817293
 20
-214.1
 30
0.0
 11
213.817293
 21
-214.1
 31
0.0
  0
LINE
  8
7
 10
207.717975
 20
-254.6
 30
0.0
 11
207.717975
 21
-244.6
 31
0.0
  0
ARC
  8
7
 10
209.817293
 20
-209.7
 30
0.0
 40
4.000000
 50
180.000000
 51
270.000000
  0
LINE
  8
7
 10
208.817293
 20
-185.7
 30
0.0
 11
205.817293
 21
-185.7
 31
0.0
  0
POINT
  8
7
 10
168.317288
 20
-262.5
 30
0.0
  0
POINT
  8
7
 10
233.317295
 20
-210.7
 30
0.0
  0
LINE
  8
7
 10
329.620832
 20
-251.1
 30
0.0
 11
338.529752
 21
-251.1
 31
0.0
  0
LINE
  8
7
 10
340.230552
 20
-261.8
 30
0.0
 11
326.509652
 21
-261.8
 31
0.0
  0
LINE
  8
7
 10
345.938942
 20
-245.3
 30
0.0
 11
319.270732
 21
-245.3
 31
0.0
  0
LINE
  8
7
 10
336.902282
 20
-260.2
 30
0.0
 11
337.401402
 21
-259.4
 31
0.0
  0
LINE
  8
7
 10
337.401402
 20
-259.4
 30
0.0
 11
337.777412
 21
-258.5
 31
0.0
  0
LINE
  8
7
 10
337.849732
 20
-254.6
 30
0.0
 11
337.506512
 21
-253.7
 31
0.0
  0
LINE
  8
7
 10
337.506512
 20
-253.7
 30
0.0
 11
337.036292
 21
-252.9
 31
0.0
  0
LINE
  8
7
 10
336.961822
 20
-258.3
 30
0.0
 11
337.137442
 21
-257.5
 31
0.0
  0
LINE
  8
7
 10
337.137442
 20
-257.5
 30
0.0
 11
337.209512
 21
-256.6
 31
0.0
  0
LINE
  8
7
 10
337.209512
 20
-256.6
 30
0.0
 11
337.175472
 21
-255.7
 31
0.0
  0
LINE
  8
7
 10
337.175472
 20
-255.7
 30
0.0
 11
337.036522
 21
-254.9
 31
0.0
  0
POINT
  8
7
 10
342.810682
 20
-199.4
 30
0.0
  0
POINT
  8
7
 10
334.310682
 20
-265.2
 30
0.0
  0
LINE
  8
7
 10
329.310682
 20
-266.2
 30
0.0
 11
329.710681
 21
-266.2
 31
0.0
  0
LINE
  8
7
 10
329.310682
 20
-265.2
 30
0.0
 11
329.310682
 21
-266.2
 31
0.0
  0
LINE
  8
7
 10
339.310682
 20
-265.2
 30
0.0
 11
329.310682
 21
-265.2
 31
0.0
  0
LINE
  8
7
 10
339.310682
 20
-266.2
 30
0.0
 11
339.310682
 21
-265.2
 31
0.0
  0
LINE
  8
7
 10
338.910682
 20
-266.2
 30
0.0
 11
339.310682
 21
-266.2
 31
0.0
  0
ARC
  8
7
 10
330.860683
 20
-268.4
 30
0.0
 40
1.853133
 50
270.0
 51
308.357670
  0
ARC
  8
7
 10
334.310682
 20
-263.4
 30
0.0
 40
6.812498
 50
250.268330
 51
289.731580
  0
ARC
  8
7
 10
337.760681
 20
-268.4
 30
0.0
 40
1.853135
 50
231.642265
 51
270.0
  0
LINE
  8
7
 10
332.010682
 20
-269.8
 30
0.0
 11
332.010682
 21
-266.2
 31
0.0
  0
LINE
  8
7
 10
336.610682
 20
-269.8
 30
0.0
 11
336.610682
 21
-266.2
 31
0.0
  0
LINE
  8
7
 10
338.910681
 20
-269.8
 30
0.0
 11
338.910681
 21
-266.2
 31
0.0
  0
LINE
  8
7
 10
338.210677
 20
-270.2
 30
0.0
 11
338.910676
 21
-269.8
 31
0.0
  0
LINE
  8
7
 10
330.410683
 20
-270.2
 30
0.0
 11
338.210681
 21
-270.2
 31
0.0
  0
LINE
  8
7
 10
329.710687
 20
-269.8
 30
0.0
 11
330.410687
 21
-270.2
 31
0.0
  0
LINE
  8
7
 10
329.710682
 20
-266.2
 30
0.0
 11
329.710682
 21
-269.8
 31
0.0
  0
LINE
  8
7
 10
338.910682
 20
-266.2
 30
0.0
 11
329.710681
 21
-266.2
 31
0.0
  0
LINE
  8
7
 10
333.560129
 20
-209.3
 30
0.0
 11
334.310682
 21
-210.6
 31
0.0
  0
LINE
  8
7
 10
334.310682
 20
-209.3
 30
0.0
 11
335.061234
 21
-210.6
 31
0.0
  0
LINE
  8
7
 10
329.310682
 20
-211.4
 30
0.0
 11
329.310682
 21
-210.6
 31
0.0
  0
LINE
  8
7
 10
339.310682
 20
-210.6
 30
0.0
 11
339.310682
 21
-211.4
 31
0.0
  0
LINE
  8
7
 10
339.310682
 20
-210.6
 30
0.0
 11
329.310682
 21
-210.6
 31
0.0
  0
LINE
  8
7
 10
330.135684
 20
-210.6
 30
0.0
 11
330.135684
 21
-209.3
 31
0.0
  0
LINE
  8
7
 10
338.485680
 20
-210.6
 30
0.0
 11
338.485680
 21
-209.3
 31
0.0
  0
ARC
  8
7
 10
331.410681
 20
-208.1
 30
0.0
 40
1.599999
 50
106.191280
 51
180.0
  0
ARC
  8
7
 10
337.210682
 20
-208.1
 30
0.0
 40
1.599999
 50
0.0
 51
73.808590
  0
LINE
  8
7
 10
329.810682
 20
-209.3
 30
0.0
 11
329.810682
 21
-208.1
 31
0.0
  0
LINE
  8
7
 10
338.810682
 20
-209.3
 30
0.0
 11
338.810682
 21
-208.1
 31
0.0
  0
LINE
  8
7
 10
329.810682
 20
-209.3
 30
0.0
 11
338.810682
 21
-209.3
 31
0.0
  0
ARC
  8
7
 10
334.310682
 20
-218.0
 30
0.0
 40
12.0
 50
73.808650
 51
106.191340
  0
LINE
  8
7
 10
432.810682
 20
-186.4
 30
0.0
 11
335.810682
 21
-186.4
 31
0.0
  0
LINE
  8
7
 10
328.110682
 20
-214.2
 30
0.0
 11
440.510682
 21
-214.2
 31
0.0
  0
LINE
  8
7
 10
440.810682
 20
-211.4
 30
0.0
 11
327.810682
 21
-211.4
 31
0.0
  0
POINT
  8
7
 10
444.810680
 20
-215.2
 30
0.0
  0
POINT
  8
7
 10
323.810682
 20
-215.2
 30
0.0
  0
POINT
  8
7
 10
437.810682
 20
-191.4
 30
0.0
  0
POINT
  8
7
 10
330.810682
 20
-191.4
 30
0.0
  0
POLYLINE
  8
0
 66
     1
 70
     0
  0
VERTEX
  8
0
 10
195.817293
 20
-170.8
 30
0.0
  0
VERTEX
  8
0
 10
195.978188
 20
-170.6
 30
0.0
  0
VERTEX
  8
0
 10
196.142002
 20
-170.4
 30
0.0
  0
VERTEX
  8
0
 10
196.311652
 20
-170.2
 30
0.0
  0
VERTEX
  8
0
 10
196.490057
 20
-170.1
 30
0.0
  0
VERTEX
  8
0
 10
196.680135
 20
-169.9
 30
0.0
  0
VERTEX
  8
0
 10
196.884805
 20
-169.8
 30
0.0
  0
VERTEX
  8
0
 10
197.106984
 20
-169.7
 30
0.0
  0
VERTEX
  8
0
 10
197.349591
 20
-169.6
 30
0.0
  0
VERTEX
  8
0
 10
197.615544
 20
-169.6
 30
0.0
  0
VERTEX
  8
0
 10
197.907762
 20
-169.6
 30
0.0
  0
VERTEX
  8
0
 10
198.229163
 20
-169.7
 30
0.0
  0
VERTEX
  8
0
 10
198.581308
 20
-169.8
 30
0.0
  0
VERTEX
  8
0
 10
198.960336
 20
-169.9
 30
0.0
  0
VERTEX
  8
0
 10
199.361027
 20
-170.1
 30
0.0
  0
VERTEX
  8
0
 10
199.778163
 20
-170.3
 30
0.0
  0
VERTEX
  8
0
 10
200.206525
 20
-170.5
 30
0.0
  0
VERTEX
  8
0
 10
200.640895
 20
-170.8
 30
0.0
  0
VERTEX
  8
0
 10
201.076052
 20
-171.0
 30
0.0
  0
VERTEX
  8
0
 10
201.506780
 20
-171.2
 30
0.0
  0
VERTEX
  8
0
 10
201.927858
 20
-171.4
 30
0.0
  0
VERTEX
  8
0
 10
202.334069
 20
-171.6
 30
0.0
  0
VERTEX
  8
0
 10
202.720193
 20
-171.7
 30
0.0
  0
VERTEX
  8
0
 10
203.082264
 20
-171.8
 30
0.0
  0
VERTEX
  8
0
 10
203.421331
 20
-171.8
 30
0.0
  0
VERTEX
  8
0
 10
203.739693
 20
-171.8
 30
0.0
  0
VERTEX
  8
0
 10
204.039652
 20
-171.8
 30
0.0
  0
VERTEX
  8
0
 10
204.323507
 20
-171.7
 30
0.0
  0
VERTEX
  8
0
 10
204.593559
 20
-171.6
 30
0.0
  0
VERTEX
  8
0
 10
204.852109
 20
-171.5
 30
0.0
  0
VERTEX
  8
0
 10
205.101457
 20
-171.3
 30
0.0
  0
VERTEX
  8
0
 10
205.343903
 20
-171.2
 30
0.0
  0
VERTEX
  8
0
 10
205.581748
 20
-171.0
 30
0.0
  0
VERTEX
  8
0
 10
205.817293
 20
-170.8
 30
0.0
  0
SEQEND
  8
0
  0
POLYLINE
  8
0
 66
     1
 70
     0
  0
VERTEX
  8
0
 10
195.817293
 20
-281.5
 30
0.0
  0
VERTEX
  8
0
 10
195.978188
 20
-281.3
 30
0.0
  0
VERTEX
  8
0
 10
196.142002
 20
-281.1
 30
0.0
  0
VERTEX
  8
0
 10
196.311652
 20
-280.9
 30
0.0
  0
VERTEX
  8
0
 10
196.490057
 20
-280.8
 30
0.0
  0
VERTEX
  8
0
 10
196.680135
 20
-280.6
 30
0.0
  0
VERTEX
  8
0
 10
196.884805
 20
-280.5
 30
0.0
  0
VERTEX
  8
0
 10
197.106984
 20
-280.4
 30
0.0
  0
VERTEX
  8
0
 10
197.349591
 20
-280.3
 30
0.0
  0
VERTEX
  8
0
 10
197.615544
 20
-280.3
 30
0.0
  0
VERTEX
  8
0
 10
197.907762
 20
-280.3
 30
0.0
  0
VERTEX
  8
0
 10
198.229163
 20
-280.4
 30
0.0
  0
VERTEX
  8
0
 10
198.581308
 20
-280.5
 30
0.0
  0
VERTEX
  8
0
 10
198.960336
 20
-280.6
 30
0.0
  0
VERTEX
  8
0
 10
199.361027
 20
-280.8
 30
0.0
  0
VERTEX
  8
0
 10
199.778163
 20
-281.0
 30
0.0
  0
VERTEX
  8
0
 10
200.206525
 20
-281.3
 30
0.0
  0
VERTEX
  8
0
 10
200.640895
 20
-281.5
 30
0.0
  0
VERTEX
  8
0
 10
201.076052
 20
-281.7
 30
0.0
  0
VERTEX
  8
0
 10
201.506780
 20
-282.0
 30
0.0
  0
VERTEX
  8
0
 10
201.927858
 20
-282.1
 30
0.0
  0
VERTEX
  8
0
 10
202.334069
 20
-282.3
 30
0.0
  0
VERTEX
  8
0
 10
202.720193
 20
-282.4
 30
0.0
  0
VERTEX
  8
0
 10
203.082264
 20
-282.5
 30
0.0
  0
VERTEX
  8
0
 10
203.421331
 20
-282.5
 30
0.0
  0
VERTEX
  8
0
 10
203.739693
 20
-282.5
 30
0.0
  0
VERTEX
  8
0
 10
204.039652
 20
-282.5
 30
0.0
  0
VERTEX
  8
0
 10
204.323507
 20
-282.4
 30
0.0
  0
VERTEX
  8
0
 10
204.593559
 20
-282.3
 30
0.0
  0
VERTEX
  8
0
 10
204.852109
 20
-282.2
 30
0.0
  0
VERTEX
  8
0
 10
205.101457
 20
-282.0
 30
0.0
  0
VERTEX
  8
0
 10
205.343903
 20
-281.9
 30
0.0
  0
VERTEX
  8
0
 10
205.581748
 20
-281.7
 30
0.0
  0
VERTEX
  8
0
 10
205.817293
 20
-281.5
 30
0.0
  0
SEQEND
  8
0
  0
ARC
  8
7
 10
172.917293
 20
-207.3
 30
0.0
 40
1.599999
 50
106.191280
 51
180.0
  0
ARC
  8
7
 10
178.717294
 20
-207.3
 30
0.0
 40
1.599999
 50
0.0
 51
73.808590
  0
ARC
  8
7
 10
175.817293
 20
-217.3
 30
0.0
 40
12.0
 50
73.808650
 51
106.191340
  0
ARC
  8
7
 10
187.033712
 20
-194.3
 30
0.0
 40
2.316419
 50
180.000000
 51
218.357735
  0
ARC
  8
7
 10
193.232914
 20
-198.7
 30
0.0
 40
8.515623
 50
160.268420
 51
199.731670
  0
ARC
  8
7
 10
187.033710
 20
-203.0
 30
0.0
 40
2.316416
 50
141.642330
 51
180.0
  0
ARC
  8
7
 10
179.267292
 20
-267.6
 30
0.0
 40
1.853135
 50
231.642265
 51
270.0
  0
ARC
  8
7
 10
175.817293
 20
-262.6
 30
0.0
 40
6.812498
 50
250.268330
 51
289.731580
  0
ARC
  8
7
 10
172.367294
 20
-267.6
 30
0.0
 40
1.853133
 50
270.0
 51
308.357670
  0
ARC
  8
7
 10
434.310682
 20
-263.4
 30
0.0
 40
6.812498
 50
250.268330
 51
289.731580
  0
ARC
  8
7
 10
430.860683
 20
-268.4
 30
0.0
 40
1.853133
 50
270.0
 51
308.357670
  0
ARC
  8
7
 10
437.760681
 20
-268.4
 30
0.0
 40
1.853135
 50
231.642265
 51
270.0
  0
CIRCLE
  8
7
 10
342.810682
 20
-199.4
 30
0.0
 40
5.249999
  0
CIRCLE
  8
7
 10
342.810682
 20
-199.4
 30
0.0
 40
5.249999
  0
CIRCLE
  8
7
 10
342.810682
 20
-199.4
 30
0.0
 40
5.749999
  0
LINE
  8
4
 10
343.410682
 20
-200.8
 30
0.0
 11
343.410682
 21
-202.4
 31
0.0
  0
ARC
  8
4
 10
344.160682
 20
-200.8
 30
0.0
 40
0.750000
 50
90.0
 51
180.0
  0
LINE
  8
4
 10
345.810682
 20
-200.0
 30
0.0
 11
344.160682
 21
-200.0
 31
0.0
  0
LINE
  8
4
 10
345.810682
 20
-198.8
 30
0.0
 11
345.810682
 21
-200.0
 31
0.0
  0
LINE
  8
4
 10
345.810682
 20
-198.8
 30
0.0
 11
344.160682
 21
-198.8
 31
0.0
  0
ARC
  8
4
 10
344.160682
 20
-198.1
 30
0.0
 40
0.750000
 50
180.0
 51
270.0
  0
LINE
  8
4
 10
343.410682
 20
-198.1
 30
0.0
 11
343.410682
 21
-196.4
 31
0.0
  0
LINE
  8
4
 10
343.410682
 20
-196.4
 30
0.0
 11
342.210682
 21
-196.4
 31
0.0
  0
LINE
  8
4
 10
342.210682
 20
-198.1
 30
0.0
 11
342.210682
 21
-196.4
 31
0.0
  0
ARC
  8
4
 10
341.460682
 20
-198.1
 30
0.0
 40
0.750000
 50
270.0
 51
360.0
  0
LINE
  8
4
 10
341.460682
 20
-198.8
 30
0.0
 11
339.810682
 21
-198.8
 31
0.0
  0
LINE
  8
4
 10
339.810682
 20
-198.8
 30
0.0
 11
339.810682
 21
-200.0
 31
0.0
  0
LINE
  8
4
 10
341.460682
 20
-200.0
 30
0.0
 11
339.810682
 21
-200.0
 31
0.0
  0
ARC
  8
4
 10
341.460682
 20
-200.8
 30
0.0
 40
0.750000
 50
0.0
 51
90.0
  0
LINE
  8
4
 10
342.210682
 20
-200.8
 30
0.0
 11
342.210682
 21
-202.4
 31
0.0
  0
LINE
  8
4
 10
343.410682
 20
-202.4
 30
0.0
 11
342.210682
 21
-202.4
 31
0.0
  0
POINT
  8
7
 10
425.810681
 20
-199.4
 30
0.0
  0
LINE
  8
4
 10
426.410682
 20
-200.8
 30
0.0
 11
426.410682
 21
-202.4
 31
0.0
  0
ARC
  8
4
 10
427.160682
 20
-200.8
 30
0.0
 40
0.750000
 50
90.0
 51
180.0
  0
LINE
  8
4
 10
428.810682
 20
-200.0
 30
0.0
 11
427.160682
 21
-200.0
 31
0.0
  0
LINE
  8
4
 10
428.810682
 20
-198.8
 30
0.0
 11
428.810682
 21
-200.0
 31
0.0
  0
LINE
  8
4
 10
428.810682
 20
-198.8
 30
0.0
 11
427.160682
 21
-198.8
 31
0.0
  0
ARC
  8
4
 10
427.160682
 20
-198.1
 30
0.0
 40
0.750000
 50
180.0
 51
270.0
  0
LINE
  8
4
 10
426.410682
 20
-198.1
 30
0.0
 11
426.410682
 21
-196.4
 31
0.0
  0
LINE
  8
4
 10
426.410682
 20
-196.4
 30
0.0
 11
425.210682
 21
-196.4
 31
0.0
  0
LINE
  8
4
 10
425.210682
 20
-198.1
 30
0.0
 11
425.210682
 21
-196.4
 31
0.0
  0
ARC
  8
4
 10
424.460682
 20
-198.1
 30
0.0
 40
0.750000
 50
270.0
 51
360.0
  0
LINE
  8
4
 10
424.460682
 20
-198.8
 30
0.0
 11
422.810682
 21
-198.8
 31
0.0
  0
LINE
  8
4
 10
422.810682
 20
-198.8
 30
0.0
 11
422.810682
 21
-200.0
 31
0.0
  0
LINE
  8
4
 10
424.460682
 20
-200.0
 30
0.0
 11
422.810682
 21
-200.0
 31
0.0
  0
ARC
  8
4
 10
424.460682
 20
-200.8
 30
0.0
 40
0.750000
 50
0.0
 51
90.0
  0
LINE
  8
4
 10
425.210682
 20
-200.8
 30
0.0
 11
425.210682
 21
-202.4
 31
0.0
  0
LINE
  8
4
 10
426.410682
 20
-202.4
 30
0.0
 11
425.210682
 21
-202.4
 31
0.0
  0
POLYLINE
  8
0
 66
     1
 70
     0
  0
VERTEX
  8
0
 10
346.810682
 20
-175.4
 30
0.0
  0
VERTEX
  8
0
 10
347.822406
 20
-174.7
 30
0.0
  0
VERTEX
  8
0
 10
348.868515
 20
-174.1
 30
0.0
  0
VERTEX
  8
0
 10
349.983393
 20
-173.5
 30
0.0
  0
VERTEX
  8
0
 10
351.201426
 20
-173.0
 30
0.0
  0
VERTEX
  8
0
 10
352.556999
 20
-172.5
 30
0.0
  0
VERTEX
  8
0
 10
354.084497
 20
-172.1
 30
0.0
  0
VERTEX
  8
0
 10
355.818304
 20
-171.8
 30
0.0
  0
VERTEX
  8
0
 10
357.792805
 20
-171.7
 30
0.0
  0
VERTEX
  8
0
 10
360.042386
 20
-171.6
 30
0.0
  0
VERTEX
  8
0
 10
362.601430
 20
-171.8
 30
0.0
  0
VERTEX
  8
0
 10
365.504324
 20
-172.1
 30
0.0
  0
VERTEX
  8
0
 10
368.767763
 20
-172.5
 30
0.0
  0
VERTEX
  8
0
 10
372.337688
 20
-173.1
 30
0.0
  0
VERTEX
  8
0
 10
376.142350
 20
-173.9
 30
0.0
  0
VERTEX
  8
0
 10
380.110003
 20
-174.7
 30
0.0
  0
VERTEX
  8
0
 10
384.168896
 20
-175.5
 30
0.0
  0
VERTEX
  8
0
 10
388.247284
 20
-176.4
 30
0.0
  0
VERTEX
  8
0
 10
392.273417
 20
-177.2
 30
0.0
  0
VERTEX
  8
0
 10
396.175547
 20
-178.0
 30
0.0
  0
VERTEX
  8
0
 10
399.881927
 20
-178.7
 30
0.0
  0
VERTEX
  8
0
 10
403.320807
 20
-179.3
 30
0.0
  0
VERTEX
  8
0
 10
406.420441
 20
-179.7
 30
0.0
  0
VERTEX
  8
0
 10
409.127265
 20
-179.9
 30
0.0
  0
VERTEX
  8
0
 10
411.460458
 20
-180.0
 30
0.0
  0
VERTEX
  8
0
 10
413.457381
 20
-179.9
 30
0.0
  0
VERTEX
  8
0
 10
415.155400
 20
-179.6
 30
0.0
  0
VERTEX
  8
0
 10
416.591875
 20
-179.2
 30
0.0
  0
VERTEX
  8
0
 10
417.804172
 20
-178.8
 30
0.0
  0
VERTEX
  8
0
 10
418.829653
 20
-178.2
 30
0.0
  0
VERTEX
  8
0
 10
419.705682
 20
-177.5
 30
0.0
  0
VERTEX
  8
0
 10
420.469620
 20
-176.9
 30
0.0
  0
VERTEX
  8
0
 10
421.158833
 20
-176.1
 30
0.0
  0
VERTEX
  8
0
 10
421.810682
 20
-175.4
 30
0.0
  0
SEQEND
  8
0
  0
POLYLINE
  8
0
 66
     1
 70
     0
  0
VERTEX
  8
0
 10
346.810682
 20
-278.3
 30
0.0
  0
VERTEX
  8
0
 10
347.822406
 20
-277.7
 30
0.0
  0
VERTEX
  8
0
 10
348.868515
 20
-277.1
 30
0.0
  0
VERTEX
  8
0
 10
349.983393
 20
-276.5
 30
0.0
  0
VERTEX
  8
0
 10
351.201426
 20
-276.0
 30
0.0
  0
VERTEX
  8
0
 10
352.556999
 20
-275.5
 30
0.0
  0
VERTEX
  8
0
 10
354.084497
 20
-275.1
 30
0.0
  0
VERTEX
  8
0
 10
355.818304
 20
-274.8
 30
0.0
  0
VERTEX
  8
0
 10
357.792805
 20
-274.6
 30
0.0
  0
VERTEX
  8
0
 10
360.042386
 20
-274.6
 30
0.0
  0
VERTEX
  8
0
 10
362.601430
 20
-274.7
 30
0.0
  0
VERTEX
  8
0
 10
365.504324
 20
-275.0
 30
0.0
  0
VERTEX
  8
0
 10
368.767763
 20
-275.5
 30
0.0
  0
VERTEX
  8
0
 10
372.337688
 20
-276.1
 30
0.0
  0
VERTEX
  8
0
 10
376.142350
 20
-276.8
 30
0.0
  0
VERTEX
  8
0
 10
380.110003
 20
-277.6
 30
0.0
  0
VERTEX
  8
0
 10
384.168896
 20
-278.5
 30
0.0
  0
VERTEX
  8
0
 10
388.247284
 20
-279.4
 30
0.0
  0
VERTEX
  8
0
 10
392.273417
 20
-280.2
 30
0.0
  0
VERTEX
  8
0
 10
396.175547
 20
-281.0
 30
0.0
  0
VERTEX
  8
0
 10
399.881927
 20
-281.7
 30
0.0
  0
VERTEX
  8
0
 10
403.320807
 20
-282.3
 30
0.0
  0
VERTEX
  8
0
 10
406.420441
 20
-282.7
 30
0.0
  0
VERTEX
  8
0
 10
409.127265
 20
-282.9
 30
0.0
  0
VERTEX
  8
0
 10
411.460458
 20
-282.9
 30
0.0
  0
VERTEX
  8
0
 10
413.457381
 20
-282.8
 30
0.0
  0
VERTEX
  8
0
 10
415.155400
 20
-282.6
 30
0.0
  0
VERTEX
  8
0
 10
416.591875
 20
-282.2
 30
0.0
  0
VERTEX
  8
0
 10
417.804172
 20
-281.7
 30
0.0
  0
VERTEX
  8
0
 10
418.829653
 20
-281.2
 30
0.0
  0
VERTEX
  8
0
 10
419.705682
 20
-280.5
 30
0.0
  0
VERTEX
  8
0
 10
420.469620
 20
-279.8
 30
0.0
  0
VERTEX
  8
0
 10
421.158833
 20
-279.1
 30
0.0
  0
VERTEX
  8
0
 10
421.810682
 20
-278.3
 30
0.0
  0
SEQEND
  8
0
  0
LINE
  8
0
 10
346.810682
 20
-280.3
 30
0.0
 11
346.810682
 21
-297.9
 31
0.0
  0
LINE
  8
0
 10
421.810682
 20
-280.3
 30
0.0
 11
421.810682
 21
-297.9
 31
0.0
  0
LINE
  8
0
 10
384.310682
 20
-295.9
 30
0.0
 11
346.810682
 21
-295.9
 31
0.0
  0
LINE
  8
0
 10
348.810682
 20
-296.5
 30
0.0
 11
346.810682
 21
-295.9
 31
0.0
  0
LINE
  8
0
 10
346.810682
 20
-295.9
 30
0.0
 11
348.810682
 21
-295.4
 31
0.0
  0
LINE
  8
0
 10
384.310682
 20
-295.9
 30
0.0
 11
421.810682
 21
-295.9
 31
0.0
  0
LINE
  8
0
 10
419.810682
 20
-295.4
 30
0.0
 11
421.810682
 21
-295.9
 31
0.0
  0
LINE
  8
0
 10
421.810682
 20
-295.9
 30
0.0
 11
419.810682
 21
-296.5
 31
0.0
  0
TEXT
  8
0
 10
373.670682
 20
-295.9
 30
0.0
 40
5.0
  7
CSTEXT
  1
MAX.
 41
0.800000
 72
     5
 11
386.950682
 21
-295.9
 31
0.0
  0
TEXT
  8
0
 10
386.950682
 20
-295.9
 30
0.0
 40
5.0
  7
CSTEXT
  1
７５
 41
0.800000
 72
     5
 11
394.950682
 21
-295.9
 31
0.0
  0
LINE
  8
0
 10
387.310682
 20
-255.3
 30
0.0
 11
425.527434
 21
-290.7
 31
0.0
  0
LINE
  8
0
 10
389.508586
 20
-256.5
 30
0.0
 11
387.310682
 21
-255.3
 31
0.0
  0
LINE
  8
0
 10
387.310682
 20
-255.3
 30
0.0
 11
388.634734
 21
-257.4
 31
0.0
  0
TEXT
  8
0
 10
429.527434
 20
-290.7
 30
0.0
 40
5.0
  7
CSTEXT
  1
検定封印穴φ2
 41
0.800000
 72
     5
 11
456.847434
 21
-290.7
 31
0.0
  0
LINE
  8
0
 10
425.527434
 20
-290.7
 30
0.0
 11
456.847434
 21
-290.7
 31
0.0
  0
LINE
  8
0
 10
441.310682
 20
-265.2
 30
0.0
 11
456.345735
 21
-265.2
 31
0.0
  0
LINE
  8
0
 10
441.110682
 20
-214.2
 30
0.0
 11
456.345735
 21
-214.2
 31
0.0
  0
LINE
  8
0
 10
454.345735
 20
-239.7
 30
0.0
 11
454.345735
 21
-265.2
 31
0.0
  0
LINE
  8
0
 10
454.881634
 20
-263.2
 30
0.0
 11
454.345735
 21
-265.2
 31
0.0
  0
LINE
  8
0
 10
454.345735
 20
-265.2
 30
0.0
 11
453.809837
 21
-263.2
 31
0.0
  0
LINE
  8
0
 10
454.345735
 20
-239.7
 30
0.0
 11
454.345735
 21
-214.2
 31
0.0
  0
LINE
  8
0
 10
453.809837
 20
-216.2
 30
0.0
 11
454.345735
 21
-214.2
 31
0.0
  0
LINE
  8
0
 10
454.345735
 20
-214.2
 30
0.0
 11
454.881634
 21
-216.2
 31
0.0
  0
TEXT
  8
0
 10
454.345735
 20
-243.7
 30
0.0
 40
5.0
  7
CSTEXT
  1
５１
 50
90.0
 41
0.800000
 72
     5
 11
454.345735
 21
-235.7
 31
0.0
  0
LINE
  8
0
 10
330.810682
 20
-189.4
 30
0.0
 11
330.810682
 21
-159.6
 31
0.0
  0
LINE
  8
0
 10
437.810682
 20
-189.4
 30
0.0
 11
437.810682
 21
-159.6
 31
0.0
  0
LINE
  8
0
 10
384.310682
 20
-161.6
 30
0.0
 11
330.810682
 21
-161.6
 31
0.0
  0
LINE
  8
0
 10
332.810682
 20
-162.1
 30
0.0
 11
330.810682
 21
-161.6
 31
0.0
  0
LINE
  8
0
 10
330.810682
 20
-161.6
 30
0.0
 11
332.810682
 21
-161.1
 31
0.0
  0
LINE
  8
0
 10
384.310682
 20
-161.6
 30
0.0
 11
437.810682
 21
-161.6
 31
0.0
  0
LINE
  8
0
 10
435.810682
 20
-161.1
 30
0.0
 11
437.810682
 21
-161.6
 31
0.0
  0
LINE
  8
0
 10
437.810682
 20
-161.6
 30
0.0
 11
435.810682
 21
-162.1
 31
0.0
  0
TEXT
  8
0
 10
378.310682
 20
-161.6
 30
0.0
 40
5.0
  7
CSTEXT
  1
１０７
 41
0.800000
 72
     5
 11
390.310682
 21
-161.6
 31
0.0
  0
LINE
  8
0
 10
323.810682
 20
-213.4
 30
0.0
 11
323.810682
 21
-150.3
 31
0.0
  0
LINE
  8
0
 10
444.810682
 20
-213.4
 30
0.0
 11
444.810682
 21
-150.3
 31
0.0
  0
LINE
  8
0
 10
384.310682
 20
-152.3
 30
0.0
 11
323.810682
 21
-152.3
 31
0.0
  0
LINE
  8
0
 10
325.810682
 20
-152.8
 30
0.0
 11
323.810682
 21
-152.3
 31
0.0
  0
LINE
  8
0
 10
323.810682
 20
-152.3
 30
0.0
 11
325.810682
 21
-151.8
 31
0.0
  0
LINE
  8
0
 10
384.310682
 20
-152.3
 30
0.0
 11
444.810682
 21
-152.3
 31
0.0
  0
LINE
  8
0
 10
442.810682
 20
-151.8
 30
0.0
 11
444.810682
 21
-152.3
 31
0.0
  0
LINE
  8
0
 10
444.810682
 20
-152.3
 30
0.0
 11
442.810682
 21
-152.8
 31
0.0
  0
TEXT
  8
0
 10
378.310682
 20
-152.3
 30
0.0
 40
5.0
  7
CSTEXT
  1
１２１
 41
0.800000
 72
     5
 11
390.310682
 21
-152.3
 31
0.0
  0
ARC
  8
7
 10
431.410681
 20
-208.1
 30
0.0
 40
1.599999
 50
106.191280
 51
180.0
  0
ARC
  8
7
 10
437.210682
 20
-208.1
 30
0.0
 40
1.599999
 50
0.0
 51
73.808590
  0
ARC
  8
7
 10
434.310682
 20
-218.0
 30
0.0
 40
12.0
 50
73.808650
 51
106.191340
  0
LINE
  8
0
 10
314.813284
 20
-254.4
 30
0.0
 11
314.813284
 21
-150.3
 31
0.0
  0
LINE
  8
0
 10
323.810682
 20
-213.2
 30
0.0
 11
323.810682
 21
-150.3
 31
0.0
  0
LINE
  8
0
 10
319.311983
 20
-152.3
 30
0.0
 11
314.813284
 21
-152.3
 31
0.0
  0
LINE
  8
0
 10
314.813284
 20
-152.3
 30
0.0
 11
304.813284
 21
-152.3
 31
0.0
  0
LINE
  8
0
 10
312.813284
 20
-152.8
 30
0.0
 11
314.813284
 21
-152.3
 31
0.0
  0
LINE
  8
0
 10
314.813284
 20
-152.3
 30
0.0
 11
312.813284
 21
-151.8
 31
0.0
  0
LINE
  8
0
 10
319.311983
 20
-152.3
 30
0.0
 11
323.810682
 21
-152.3
 31
0.0
  0
LINE
  8
0
 10
323.810682
 20
-152.3
 30
0.0
 11
329.810682
 21
-152.3
 31
0.0
  0
LINE
  8
0
 10
325.810682
 20
-151.8
 30
0.0
 11
323.810682
 21
-152.3
 31
0.0
  0
LINE
  8
0
 10
323.810682
 20
-152.3
 30
0.0
 11
325.810682
 21
-152.8
 31
0.0
  0
TEXT
  8
0
 10
304.813284
 20
-152.3
 30
0.0
 40
5.0
  7
CSTEXT
  1
９
 41
0.800000
 72
     5
 11
308.813284
 21
-152.3
 31
0.0
  0
LINE
  8
0
 10
168.317293
 20
-264.5
 30
0.0
 11
156.245299
 21
-264.5
 31
0.0
  0
LINE
  8
0
 10
190.817293
 20
-185.7
 30
0.0
 11
156.245299
 21
-185.7
 31
0.0
  0
LINE
  8
0
 10
158.245299
 20
-225.1
 30
0.0
 11
158.245299
 21
-264.5
 31
0.0
  0
LINE
  8
0
 10
158.781197
 20
-262.5
 30
0.0
 11
158.245299
 21
-264.5
 31
0.0
  0
LINE
  8
0
 10
158.245299
 20
-264.5
 30
0.0
 11
157.709401
 21
-262.5
 31
0.0
  0
LINE
  8
0
 10
158.245299
 20
-225.1
 30
0.0
 11
158.245299
 21
-185.7
 31
0.0
  0
LINE
  8
0
 10
157.709401
 20
-187.7
 30
0.0
 11
158.245299
 21
-185.7
 31
0.0
  0
LINE
  8
0
 10
158.245299
 20
-185.7
 30
0.0
 11
158.781197
 21
-187.7
 31
0.0
  0
TEXT
  8
0
 10
158.245299
 20
-229.1
 30
0.0
 40
5.0
  7
CSTEXT
  1
７９
 50
90.0
 41
0.800000
 72
     5
 11
158.245299
 21
-221.1
 31
0.0
  0
LINE
  8
0
 10
168.317293
 20
-264.5
 30
0.0
 11
156.245299
 21
-264.5
 31
0.0
  0
LINE
  8
0
 10
171.317293
 20
-271.0
 30
0.0
 11
156.245299
 21
-271.0
 31
0.0
  0
LINE
  8
0
 10
158.245299
 20
-267.7
 30
0.0
 11
158.245299
 21
-264.5
 31
0.0
  0
LINE
  8
0
 10
158.245299
 20
-264.5
 30
0.0
 11
158.245299
 21
-258.5
 31
0.0
  0
LINE
  8
0
 10
157.709401
 20
-262.5
 30
0.0
 11
158.245299
 21
-264.5
 31
0.0
  0
LINE
  8
0
 10
158.245299
 20
-264.5
 30
0.0
 11
158.781197
 21
-262.5
 31
0.0
  0
LINE
  8
0
 10
158.245299
 20
-267.7
 30
0.0
 11
158.245299
 21
-271.0
 31
0.0
  0
LINE
  8
0
 10
158.245299
 20
-271.0
 30
0.0
 11
158.245299
 21
-289.0
 31
0.0
  0
LINE
  8
0
 10
158.781197
 20
-273.0
 30
0.0
 11
158.245299
 21
-271.0
 31
0.0
  0
LINE
  8
0
 10
158.245299
 20
-271.0
 30
0.0
 11
157.709401
 21
-273.0
 31
0.0
  0
TEXT
  8
0
 10
158.245299
 20
-289.0
 30
0.0
 40
5.0
  7
CSTEXT
  1
６．５
 50
90.0
 41
0.800000
 72
     5
 11
158.245299
 21
-277.0
 31
0.0
  0
LINE
  8
0
 10
195.817293
 20
-168.8
 30
0.0
 11
195.817293
 21
-150.3
 31
0.0
  0
LINE
  8
0
 10
205.817293
 20
-168.8
 30
0.0
 11
205.817293
 21
-150.3
 31
0.0
  0
LINE
  8
0
 10
200.817293
 20
-152.3
 30
0.0
 11
195.817293
 21
-152.3
 31
0.0
  0
LINE
  8
0
 10
195.817293
 20
-152.3
 30
0.0
 11
174.497293
 21
-152.3
 31
0.0
  0
LINE
  8
0
 10
193.817293
 20
-152.8
 30
0.0
 11
195.817293
 21
-152.3
 31
0.0
  0
LINE
  8
0
 10
195.817293
 20
-152.3
 30
0.0
 11
193.817293
 21
-151.8
 31
0.0
  0
LINE
  8
0
 10
200.817293
 20
-152.3
 30
0.0
 11
205.817293
 21
-152.3
 31
0.0
  0
LINE
  8
0
 10
205.817293
 20
-152.3
 30
0.0
 11
211.817293
 21
-152.3
 31
0.0
  0
LINE
  8
0
 10
207.817293
 20
-151.8
 30
0.0
 11
205.817293
 21
-152.3
 31
0.0
  0
LINE
  8
0
 10
205.817293
 20
-152.3
 30
0.0
 11
207.817293
 21
-152.8
 31
0.0
  0
TEXT
  8
0
 10
174.497293
 20
-152.3
 30
0.0
 40
5.0
  7
CSTEXT
  1
5～
 41
0.800000
 72
     5
 11
181.817293
 21
-152.3
 31
0.0
  0
TEXT
  8
0
 10
181.817293
 20
-152.3
 30
0.0
 40
5.0
  7
CSTEXT
  1
１０
 41
0.800000
 72
     5
 11
189.817293
 21
-152.3
 31
0.0
  0
LINE
  8
0
 10
233.317293
 20
-208.7
 30
0.0
 11
233.317293
 21
-150.3
 31
0.0
  0
LINE
  8
0
 10
205.817293
 20
-168.8
 30
0.0
 11
205.817293
 21
-150.3
 31
0.0
  0
LINE
  8
0
 10
219.567293
 20
-152.3
 30
0.0
 11
233.317293
 21
-152.3
 31
0.0
  0
LINE
  8
0
 10
231.317293
 20
-151.8
 30
0.0
 11
233.317293
 21
-152.3
 31
0.0
  0
LINE
  8
0
 10
233.317293
 20
-152.3
 30
0.0
 11
231.317293
 21
-152.8
 31
0.0
  0
LINE
  8
0
 10
219.567293
 20
-152.3
 30
0.0
 11
205.817293
 21
-152.3
 31
0.0
  0
LINE
  8
0
 10
207.817293
 20
-152.8
 30
0.0
 11
205.817293
 21
-152.3
 31
0.0
  0
LINE
  8
0
 10
205.817293
 20
-152.3
 30
0.0
 11
207.817293
 21
-151.8
 31
0.0
  0
TEXT
  8
0
 10
211.567293
 20
-152.3
 30
0.0
 40
5.0
  7
CSTEXT
  1
２７．５
 41
0.800000
 72
     5
 11
227.567293
 21
-152.3
 31
0.0
  0
LINE
  8
0
 10
168.317293
 20
-264.5
 30
0.0
 11
168.317293
 21
-297.2
 31
0.0
  0
LINE
  8
0
 10
233.317293
 20
-246.6
 30
0.0
 11
233.317293
 21
-297.2
 31
0.0
  0
LINE
  8
0
 10
200.817293
 20
-295.2
 30
0.0
 11
168.317293
 21
-295.2
 31
0.0
  0
LINE
  8
0
 10
170.317293
 20
-295.7
 30
0.0
 11
168.317293
 21
-295.2
 31
0.0
  0
LINE
  8
0
 10
168.317293
 20
-295.2
 30
0.0
 11
170.317293
 21
-294.6
 31
0.0
  0
LINE
  8
0
 10
200.817293
 20
-295.2
 30
0.0
 11
233.317293
 21
-295.2
 31
0.0
  0
LINE
  8
0
 10
231.317293
 20
-294.6
 30
0.0
 11
233.317293
 21
-295.2
 31
0.0
  0
LINE
  8
0
 10
233.317293
 20
-295.2
 30
0.0
 11
231.317293
 21
-295.7
 31
0.0
  0
TEXT
  8
0
 10
196.817293
 20
-295.2
 30
0.0
 40
5.0
  7
CSTEXT
  1
６５
 41
0.800000
 72
     5
 11
204.817293
 21
-295.2
 31
0.0
  0
LINE
  8
0
 10
233.317293
 20
-246.6
 30
0.0
 11
233.317293
 21
-297.2
 31
0.0
  0
LINE
  8
0
 10
242.314691
 20
-257.6
 30
0.0
 11
242.314691
 21
-297.2
 31
0.0
  0
LINE
  8
0
 10
237.815992
 20
-295.2
 30
0.0
 11
233.317293
 21
-295.2
 31
0.0
  0
LINE
  8
0
 10
235.317293
 20
-295.7
 30
0.0
 11
233.317293
 21
-295.2
 31
0.0
  0
LINE
  8
0
 10
233.317293
 20
-295.2
 30
0.0
 11
235.317293
 21
-294.6
 31
0.0
  0
LINE
  8
0
 10
237.815992
 20
-295.2
 30
0.0
 11
242.314691
 21
-295.2
 31
0.0
  0
LINE
  8
0
 10
240.314691
 20
-294.6
 30
0.0
 11
242.314691
 21
-295.2
 31
0.0
  0
LINE
  8
0
 10
242.314691
 20
-295.2
 30
0.0
 11
240.314691
 21
-295.7
 31
0.0
  0
TEXT
  8
0
 10
235.815992
 20
-295.2
 30
0.0
 40
5.0
  7
CSTEXT
  1
９
 41
0.800000
 72
     5
 11
239.815992
 21
-295.2
 31
0.0
  0
LINE
  8
0
 10
205.766575
 20
-177.9
 30
0.0
 11
249.081969
 21
-161.8
 31
0.0
  0
LINE
  8
0
 10
207.791239
 20
-176.5
 30
0.0
 11
205.766575
 21
-177.9
 31
0.0
  0
LINE
  8
0
 10
205.766575
 20
-177.9
 30
0.0
 11
208.240105
 21
-177.7
 31
0.0
  0
TEXT
  8
0
 10
253.081969
 20
-161.8
 30
0.0
 40
5.0
  7
CSTEXT
  1
ブスバー
 41
0.800000
 72
     5
 11
269.081969
 21
-161.8
 31
0.0
  0
LINE
  8
0
 10
249.081969
 20
-161.8
 30
0.0
 11
269.081969
 21
-161.8
 31
0.0
  0
LINE
  8
0
 10
233.317293
 20
-213.9
 30
0.0
 11
242.927673
 21
-198.9
 31
0.0
  0
LINE
  8
0
 10
234.067886
 20
-211.5
 30
0.0
 11
233.317293
 21
-213.9
 31
0.0
  0
LINE
  8
0
 10
233.317293
 20
-213.9
 30
0.0
 11
235.151614
 21
-212.2
 31
0.0
  0
TEXT
  8
0
 10
246.927673
 20
-198.9
 30
0.0
 40
5.0
  7
CSTEXT
  1
ブスバー取付金具
 41
0.800000
 72
     5
 11
278.927673
 21
-198.9
 31
0.0
  0
LINE
  8
0
 10
242.927673
 20
-198.9
 30
0.0
 11
278.927673
 21
-198.9
 31
0.0
  0
LINE
  8
0
 10
241.393470
 20
-251.2
 30
0.0
 11
248.460357
 21
-242.4
 31
0.0
  0
LINE
  8
0
 10
242.391835
 20
-248.9
 30
0.0
 11
241.393470
 21
-251.2
 31
0.0
  0
LINE
  8
0
 10
241.393470
 20
-251.2
 30
0.0
 11
243.395710
 21
-249.7
 31
0.0
  0
TEXT
  8
0
 10
252.460357
 20
-242.4
 30
0.0
 40
5.0
  7
CSTEXT
  1
M5ネジ
 41
0.800000
 72
     5
 11
267.100357
 21
-242.4
 31
0.0
  0
LINE
  8
0
 10
248.460357
 20
-242.4
 30
0.0
 11
267.100357
 21
-242.4
 31
0.0
  0
TEXT
  8
3
 10
180.812911
 20
-176.6
 30
0.0
 40
5.0
  7
CSTEXT
  1
K
 41
0.800000
 72
     5
 11
184.132911
 21
-176.6
 31
0.0
  0
TEXT
  8
3
 10
180.812911
 20
-278.7
 30
0.0
 40
5.0
  7
CSTEXT
  1
L
 41
0.800000
 72
     5
 11
184.132911
 21
-278.7
 31
0.0
  0
TEXT
  8
3
 10
216.922622
 20
-275.0
 30
0.0
 40
5.0
  7
CSTEXT
  1
k
 41
0.800000
 72
     5
 11
220.242622
 21
-275.0
 31
0.0
  0
POLYLINE
  8
0
 66
     1
 70
     0
  0
VERTEX
  8
0
 10
238.895306
 20
-274.2
 30
0.0
  0
VERTEX
  8
0
 10
238.953051
 20
-274.1
 30
0.0
  0
VERTEX
  8
0
 10
239.010725
 20
-274.0
 30
0.0
  0
VERTEX
  8
0
 10
239.068255
 20
-273.9
 30
0.0
  0
VERTEX
  8
0
 10
239.125571
 20
-273.8
 30
0.0
  0
VERTEX
  8
0
 10
239.182600
 20
-273.7
 30
0.0
  0
VERTEX
  8
0
 10
239.239271
 20
-273.6
 30
0.0
  0
VERTEX
  8
0
 10
239.295513
 20
-273.5
 30
0.0
  0
VERTEX
  8
0
 10
239.351253
 20
-273.4
 30
0.0
  0
VERTEX
  8
0
 10
239.406421
 20
-273.2
 30
0.0
  0
VERTEX
  8
0
 10
239.460944
 20
-273.1
 30
0.0
  0
VERTEX
  8
0
 10
239.514751
 20
-272.9
 30
0.0
  0
VERTEX
  8
0
 10
239.567694
 20
-272.8
 30
0.0
  0
VERTEX
  8
0
 10
239.619316
 20
-272.6
 30
0.0
  0
VERTEX
  8
0
 10
239.669084
 20
-272.4
 30
0.0
  0
VERTEX
  8
0
 10
239.716464
 20
-272.2
 30
0.0
  0
VERTEX
  8
0
 10
239.760925
 20
-272.0
 30
0.0
  0
VERTEX
  8
0
 10
239.801932
 20
-271.8
 30
0.0
  0
VERTEX
  8
0
 10
239.838952
 20
-271.6
 30
0.0
  0
VERTEX
  8
0
 10
239.871452
 20
-271.4
 30
0.0
  0
VERTEX
  8
0
 10
239.898899
 20
-271.2
 30
0.0
  0
VERTEX
  8
0
 10
239.920760
 20
-271.1
 30
0.0
  0
VERTEX
  8
0
 10
239.936501
 20
-270.9
 30
0.0
  0
VERTEX
  8
0
 10
239.945690
 20
-270.8
 30
0.0
  0
VERTEX
  8
0
 10
239.948291
 20
-270.7
 30
0.0
  0
VERTEX
  8
0
 10
239.944370
 20
-270.5
 30
0.0
  0
VERTEX
  8
0
 10
239.933994
 20
-270.5
 30
0.0
  0
VERTEX
  8
0
 10
239.917226
 20
-270.4
 30
0.0
  0
VERTEX
  8
0
 10
239.894134
 20
-270.3
 30
0.0
  0
VERTEX
  8
0
 10
239.864782
 20
-270.3
 30
0.0
  0
VERTEX
  8
0
 10
239.829236
 20
-270.3
 30
0.0
  0
VERTEX
  8
0
 10
239.787561
 20
-270.4
 30
0.0
  0
VERTEX
  8
0
 10
239.739823
 20
-270.4
 30
0.0
  0
VERTEX
  8
0
 10
239.686087
 20
-270.5
 30
0.0
  0
VERTEX
  8
0
 10
239.626711
 20
-270.6
 30
0.0
  0
VERTEX
  8
0
 10
239.563219
 20
-270.8
 30
0.0
  0
VERTEX
  8
0
 10
239.497426
 20
-270.9
 30
0.0
  0
VERTEX
  8
0
 10
239.431149
 20
-271.1
 30
0.0
  0
VERTEX
  8
0
 10
239.366204
 20
-271.3
 30
0.0
  0
VERTEX
  8
0
 10
239.304406
 20
-271.5
 30
0.0
  0
VERTEX
  8
0
 10
239.247571
 20
-271.7
 30
0.0
  0
VERTEX
  8
0
 10
239.197515
 20
-272.0
 30
0.0
  0
VERTEX
  8
0
 10
239.156054
 20
-272.2
 30
0.0
  0
VERTEX
  8
0
 10
239.125004
 20
-272.4
 30
0.0
  0
VERTEX
  8
0
 10
239.106181
 20
-272.6
 30
0.0
  0
VERTEX
  8
0
 10
239.100896
 20
-272.9
 30
0.0
  0
VERTEX
  8
0
 10
239.108445
 20
-273.1
 30
0.0
  0
VERTEX
  8
0
 10
239.127617
 20
-273.2
 30
0.0
  0
VERTEX
  8
0
 10
239.157203
 20
-273.4
 30
0.0
  0
VERTEX
  8
0
 10
239.195993
 20
-273.6
 30
0.0
  0
VERTEX
  8
0
 10
239.242778
 20
-273.7
 30
0.0
  0
VERTEX
  8
0
 10
239.296348
 20
-273.8
 30
0.0
  0
VERTEX
  8
0
 10
239.355494
 20
-273.9
 30
0.0
  0
VERTEX
  8
0
 10
239.419006
 20
-274.0
 30
0.0
  0
VERTEX
  8
0
 10
239.485675
 20
-274.1
 30
0.0
  0
VERTEX
  8
0
 10
239.554290
 20
-274.1
 30
0.0
  0
VERTEX
  8
0
 10
239.623833
 20
-274.2
 30
0.0
  0
VERTEX
  8
0
 10
239.694047
 20
-274.2
 30
0.0
  0
VERTEX
  8
0
 10
239.764864
 20
-274.2
 30
0.0
  0
VERTEX
  8
0
 10
239.836217
 20
-274.1
 30
0.0
  0
VERTEX
  8
0
 10
239.908039
 20
-274.1
 30
0.0
  0
VERTEX
  8
0
 10
239.980263
 20
-274.1
 30
0.0
  0
VERTEX
  8
0
 10
240.052823
 20
-274.0
 30
0.0
  0
VERTEX
  8
0
 10
240.125650
 20
-273.9
 30
0.0
  0
VERTEX
  8
0
 10
240.198679
 20
-273.8
 30
0.0
  0
VERTEX
  8
0
 10
240.271842
 20
-273.8
 30
0.0
  0
VERTEX
  8
0
 10
240.345071
 20
-273.7
 30
0.0
  0
SEQEND
  8
0
  0
TEXT
  8
0
 10
855.618524
 20
-32.5
 30
0.0
 40
10.0
  7
CSTEXT
  1
外形寸法図
 41
0.800000
 72
     5
 11
927.618524
 21
-32.5
 31
0.0
  0
LINE
  8
0
 10
855.618524
 20
-33.5
 30
0.0
 11
927.618524
 21
-33.5
 31
0.0
  0
TEXT
  8
0
 10
777.118524
 20
-47.5
 30
0.0
 40
10.0
  7
CSTEXT
  1
１１００Ｖ以下低圧変成器ＣＴシリーズ　ＣＴ－１５ＬＭＳ
 41
0.800000
 72
     5
 11
1006.118524
 21
-47.5
 31
0.0
  0
LINE
  8
0
 10
777.118524
 20
-48.5
 30
0.0
 11
1006.118524
 21
-48.5
 31
0.0
  0
LINE
  8
0
 62
     7
 10
605.0
 20
-420.0
 30
0.0
 11
605.0
 21
-15.0
 31
0.0
  0
LINE
  8
0
 62
     7
 10
605.0
 20
-420.0
 30
0.0
 11
1185.0
 21
-420.0
 31
0.0
  0
LINE
  8
0
 62
     7
 10
1185.0
 20
-15.0
 30
0.0
 11
1185.0
 21
-420.0
 31
0.0
  0
LINE
  8
0
 62
     7
 10
1185.0
 20
-15.0
 30
0.0
 11
605.0
 21
-15.0
 31
0.0
  0
LINE
  8
0
 62
     7
 10
600.0
 20
-10.0
 30
0.0
 11
600.0
 21
-425.0
 31
0.0
  0
LINE
  8
0
 62
     7
 10
1190.0
 20
-425.0
 30
0.0
 11
1190.0
 21
-10.0
 31
0.0
  0
LINE
  8
0
 62
     7
 10
1190.0
 20
-10.0
 30
0.0
 11
600.0
 21
-10.0
 31
0.0
  0
LINE
  8
0
 62
     7
 10
1190.0
 20
-425.0
 30
0.0
 11
600.0
 21
-425.0
 31
0.0
  0
TEXT
  8
0
 10
836.618524
 20
-62.5
 30
0.0
 40
10.0
  7
CSTEXT
  1
検定専用品　ブスバー配線用
 41
0.800000
 72
     5
 11
946.618524
 21
-62.5
 31
0.0
  0
LINE
  8
0
 10
836.618524
 20
-63.5
 30
0.0
 11
946.618524
 21
-63.5
 31
0.0
  0
TEXT
  8
3
 10
601.0
 20
-424.5
 30
0.0
 40
3.500000
  7
CSTEXT
  1
BK-15LMS-11
 41
0.800000
 72
     5
 11
626.564000
 21
-424.5
 31
0.0
  0
TEXT
  8
0
 10
794.118524
 20
-77.5
 30
0.0
 40
10.0
  7
CSTEXT
  1
１０００Ａ、１２００Ａ、１５００Ａ、２０００Ａ
 41
0.800000
 72
     5
 11
989.118524
 21
-77.5
 31
0.0
  0
LINE
  8
0
 10
989.118524
 20
-78.5
 30
0.0
 11
794.118524
 21
-78.5
 31
0.0
  0
LINE
  8
7
 10
781.034211
 20
-201.7
 30
0.0
 11
781.034211
 21
-195.7
 31
0.0
  0
LINE
  8
7
 62
     4
  6
PHANTOM
 10
793.134208
 20
-281.2
 30
0.0
 11
793.134208
 21
-170.3
 31
0.0
  0
LINE
  8
7
 10
760.634208
 20
-270.7
 30
0.0
 11
755.634208
 21
-270.7
 31
0.0
  0
LINE
  8
7
 10
756.034208
 20
-269.2
 30
0.0
 11
756.034208
 21
-270.7
 31
0.0
  0
LINE
  8
7
 10
755.634208
 20
-269.2
 30
0.0
 11
755.634208
 21
-270.7
 31
0.0
  0
LINE
  8
7
 10
760.234208
 20
-269.2
 30
0.0
 11
760.234208
 21
-270.7
 31
0.0
  0
LINE
  8
7
 10
760.634208
 20
-269.2
 30
0.0
 11
760.634208
 21
-270.7
 31
0.0
  0
LINE
  8
7
 10
781.034211
 20
-201.2
 30
0.0
 11
782.534211
 21
-201.2
 31
0.0
  0
LINE
  8
7
 10
781.034211
 20
-201.7
 30
0.0
 11
782.534211
 21
-201.7
 31
0.0
  0
LINE
  8
7
 10
781.034211
 20
-196.2
 30
0.0
 11
782.534211
 21
-196.2
 31
0.0
  0
LINE
  8
7
 10
781.034211
 20
-195.7
 30
0.0
 11
782.534211
 21
-195.7
 31
0.0
  0
LINE
  8
7
 62
     4
  6
PHANTOM
 10
805.134208
 20
-281.2
 30
0.0
 11
805.134208
 21
-170.3
 31
0.0
  0
LINE
  8
6
 10
799.134208
 20
-287.1
 30
0.0
 11
799.134208
 21
-162.7
 31
0.0
  0
LINE
  8
7
 10
837.634208
 20
-270.3
 30
0.0
 11
842.634208
 21
-270.3
 31
0.0
  0
LINE
  8
7
 10
838.034208
 20
-268.8
 30
0.0
 11
838.034208
 21
-270.3
 31
0.0
  0
LINE
  8
7
 10
837.634208
 20
-268.8
 30
0.0
 11
837.634208
 21
-270.3
 31
0.0
  0
LINE
  8
7
 10
842.234208
 20
-268.8
 30
0.0
 11
842.234208
 21
-270.3
 31
0.0
  0
LINE
  8
7
 10
842.634208
 20
-268.8
 30
0.0
 11
842.634208
 21
-270.3
 31
0.0
  0
POINT
  8
7
 10
847.634208
 20
-264.2
 30
0.0
  0
LINE
  8
7
 62
     4
  6
PHANTOM
 10
954.310682
 20
-277.1
 30
0.0
 11
954.310682
 21
-174.1
 31
0.0
  0
LINE
  8
6
 10
1004.310682
 20
-283.0
 30
0.0
 11
1004.310682
 21
-164.7
 31
0.0
  0
LINE
  8
7
 10
942.310682
 20
-270.7
 30
0.0
 11
947.310682
 21
-270.7
 31
0.0
  0
LINE
  8
7
 10
946.910682
 20
-269.2
 30
0.0
 11
946.910682
 21
-270.7
 31
0.0
  0
LINE
  8
7
 10
942.310682
 20
-269.2
 30
0.0
 11
942.310682
 21
-270.7
 31
0.0
  0
LINE
  8
7
 10
942.710682
 20
-269.2
 30
0.0
 11
942.710682
 21
-270.7
 31
0.0
  0
LINE
  8
7
 10
947.310682
 20
-269.2
 30
0.0
 11
947.310682
 21
-270.7
 31
0.0
  0
LINE
  8
7
 62
     4
  6
PHANTOM
 10
1054.310682
 20
-277.1
 30
0.0
 11
1054.310682
 21
-174.1
 31
0.0
  0
LINE
  8
7
 10
1061.310682
 20
-269.2
 30
0.0
 11
1061.310682
 21
-270.7
 31
0.0
  0
LINE
  8
7
 10
1066.310682
 20
-269.2
 30
0.0
 11
1066.310682
 21
-270.7
 31
0.0
  0
LINE
  8
7
 10
1061.710682
 20
-269.2
 30
0.0
 11
1061.710682
 21
-270.7
 31
0.0
  0
LINE
  8
7
 10
1065.910682
 20
-269.2
 30
0.0
 11
1065.910682
 21
-270.7
 31
0.0
  0
LINE
  8
7
 10
1066.310682
 20
-270.7
 30
0.0
 11
1061.310682
 21
-270.7
 31
0.0
  0
ARC
  8
7
 10
1062.810682
 20
-189.7
 30
0.0
 40
6.000000
 50
0.000000
 51
90.000000
  0
ARC
  8
7
 10
1068.610682
 20
-215.4
 30
0.0
 40
2.200000
 50
0.000000
 51
90.000000
  0
ARC
  8
7
 10
1070.010682
 20
-214.2
 30
0.0
 40
1.000000
 50
0.000000
 51
90.000000
  0
LINE
  8
7
 10
1073.810682
 20
-219.7
 30
0.0
 11
1071.010682
 21
-219.7
 31
0.0
  0
LINE
  8
7
 10
1071.010682
 20
-219.7
 30
0.0
 11
1071.010682
 21
-214.2
 31
0.0
  0
LINE
  8
7
 10
1068.610682
 20
-213.2
 30
0.0
 11
1055.610682
 21
-213.2
 31
0.0
  0
POINT
  8
7
 10
1063.810682
 20
-210.7
 30
0.0
  0
LINE
  8
7
 10
1068.310682
 20
-208.6
 30
0.0
 11
1059.310682
 21
-208.6
 31
0.0
  0
LINE
  8
7
 10
1059.310682
 20
-208.6
 30
0.0
 11
1059.310682
 21
-207.3
 31
0.0
  0
LINE
  8
7
 10
1068.310682
 20
-208.6
 30
0.0
 11
1068.310682
 21
-207.3
 31
0.0
  0
LINE
  8
7
 10
1059.635684
 20
-209.9
 30
0.0
 11
1059.635684
 21
-208.6
 31
0.0
  0
LINE
  8
7
 10
1067.985680
 20
-209.9
 30
0.0
 11
1067.985680
 21
-208.6
 31
0.0
  0
POINT
  8
7
 10
1063.810682
 20
-210.7
 30
0.0
  0
LINE
  8
7
 10
1058.810682
 20
-209.9
 30
0.0
 11
1068.810682
 21
-209.9
 31
0.0
  0
LINE
  8
7
 10
938.310682
 20
-210.7
 30
0.0
 11
1070.310682
 21
-210.7
 31
0.0
  0
LINE
  8
7
 10
1058.810682
 20
-209.9
 30
0.0
 11
1058.810682
 21
-210.7
 31
0.0
  0
LINE
  8
7
 10
1068.810682
 20
-210.7
 30
0.0
 11
1068.810682
 21
-209.9
 31
0.0
  0
LINE
  8
7
 10
1063.810682
 20
-208.6
 30
0.0
 11
1063.060129
 21
-209.9
 31
0.0
  0
LINE
  8
7
 10
1064.561234
 20
-208.6
 30
0.0
 11
1063.810682
 21
-209.9
 31
0.0
  0
ARC
  8
7
 10
1068.810682
 20
-262.2
 30
0.0
 40
2.000000
 50
270.000000
 51
360.000000
  0
LINE
  8
7
 10
1070.810682
 20
-254.3
 30
0.0
 11
1070.810682
 21
-262.2
 31
0.0
  0
LINE
  8
7
 10
1068.810682
 20
-264.2
 30
0.0
 11
930.770732
 21
-264.2
 31
0.0
  0
LINE
  8
7
 10
1059.210681
 20
-265.2
 30
0.0
 11
1068.410682
 21
-265.2
 31
0.0
  0
LINE
  8
7
 10
1068.410681
 20
-265.2
 30
0.0
 11
1068.410681
 21
-268.8
 31
0.0
  0
LINE
  8
7
 10
1068.410676
 20
-268.8
 30
0.0
 11
1067.710677
 21
-269.2
 31
0.0
  0
LINE
  8
7
 10
1067.710681
 20
-269.2
 30
0.0
 11
1059.910683
 21
-269.2
 31
0.0
  0
LINE
  8
7
 10
1059.910687
 20
-269.2
 30
0.0
 11
1059.210687
 21
-268.8
 31
0.0
  0
LINE
  8
7
 10
1059.210682
 20
-268.8
 30
0.0
 11
1059.210682
 21
-265.2
 31
0.0
  0
LINE
  8
7
 10
1061.510682
 20
-268.8
 30
0.0
 11
1061.510682
 21
-265.2
 31
0.0
  0
LINE
  8
7
 10
1066.110682
 20
-268.8
 30
0.0
 11
1066.110682
 21
-265.2
 31
0.0
  0
LINE
  8
7
 10
1059.210681
 20
-265.2
 30
0.0
 11
1058.810682
 21
-265.2
 31
0.0
  0
LINE
  8
7
 10
1058.810682
 20
-265.2
 30
0.0
 11
1058.810682
 21
-264.2
 31
0.0
  0
LINE
  8
7
 10
1058.810682
 20
-264.2
 30
0.0
 11
1068.810682
 21
-264.2
 31
0.0
  0
LINE
  8
7
 10
1068.810682
 20
-264.2
 30
0.0
 11
1068.810682
 21
-265.2
 31
0.0
  0
LINE
  8
7
 10
1068.810682
 20
-265.2
 30
0.0
 11
1068.410682
 21
-265.2
 31
0.0
  0
POINT
  8
7
 10
1063.810682
 20
-264.2
 30
0.0
  0
LINE
  8
7
 62
     4
  6
DASHED
 10
1056.810682
 20
-264.2
 30
0.0
 11
1056.810682
 21
-213.2
 31
0.0
  0
LINE
  8
7
 10
1070.810682
 20
-254.3
 30
0.0
 11
1070.810682
 21
-215.4
 31
0.0
  0
ARC
  8
7
 10
1070.310682
 20
-214.2
 30
0.0
 40
3.500000
 50
0.000000
 51
90.000000
  0
LINE
  8
7
 10
1073.810682
 20
-219.7
 30
0.0
 11
1073.810682
 21
-214.2
 31
0.0
  0
POINT
  8
7
 10
1068.810672
 20
-264.2
 30
0.0
  0
POINT
  8
7
 10
1070.010684
 20
-213.2
 30
0.0
  0
CIRCLE
  8
7
 10
1058.310682
 20
-198.7
 30
0.0
 40
5.249999
  0
CIRCLE
  8
7
 10
1058.310682
 20
-198.7
 30
0.0
 40
5.749999
  0
POINT
  8
7
 10
1058.310682
 20
-198.7
 30
0.0
  0
LINE
  8
7
 10
1068.810682
 20
-210.7
 30
0.0
 11
1068.810682
 21
-189.7
 31
0.0
  0
ARC
  8
7
 10
945.810682
 20
-189.7
 30
0.0
 40
6.000000
 50
90.000000
 51
180.000000
  0
LINE
  8
7
 10
1007.310682
 20
-254.3
 30
0.0
 11
1007.310682
 21
-251.3
 31
0.0
  0
LINE
  8
7
 10
1001.310682
 20
-254.3
 30
0.0
 11
1001.310682
 21
-251.3
 31
0.0
  0
LINE
  8
7
 10
1007.310682
 20
-254.3
 30
0.0
 11
1001.310682
 21
-254.3
 31
0.0
  0
LINE
  8
7
 10
1007.310682
 20
-251.3
 30
0.0
 11
1001.310682
 21
-251.3
 31
0.0
  0
ARC
  8
7
 10
940.010682
 20
-215.4
 30
0.0
 40
2.200000
 50
90.000000
 51
180.000000
  0
ARC
  8
7
 10
938.610682
 20
-214.2
 30
0.0
 40
1.000000
 50
90.000000
 51
180.000000
  0
ARC
  8
7
 10
938.310682
 20
-214.2
 30
0.0
 40
3.500000
 50
90.000000
 51
180.000000
  0
LINE
  8
7
 10
934.810682
 20
-219.7
 30
0.0
 11
937.610682
 21
-219.7
 31
0.0
  0
LINE
  8
7
 10
937.610682
 20
-219.7
 30
0.0
 11
937.610682
 21
-214.2
 31
0.0
  0
LINE
  8
7
 10
934.810682
 20
-214.2
 30
0.0
 11
934.810682
 21
-219.7
 31
0.0
  0
ARC
  8
7
 10
944.810682
 20
-217.3
 30
0.0
 40
12.0
 50
73.808650
 51
106.191340
  0
POINT
  8
7
 10
944.810682
 20
-210.7
 30
0.0
  0
LINE
  8
7
 10
940.310682
 20
-208.6
 30
0.0
 11
949.310682
 21
-208.6
 31
0.0
  0
LINE
  8
7
 10
949.310682
 20
-208.6
 30
0.0
 11
949.310682
 21
-207.3
 31
0.0
  0
LINE
  8
7
 10
940.310682
 20
-208.6
 30
0.0
 11
940.310682
 21
-207.3
 31
0.0
  0
ARC
  8
7
 10
947.710682
 20
-207.3
 30
0.0
 40
1.599999
 50
0.0
 51
73.808590
  0
ARC
  8
7
 10
941.910681
 20
-207.3
 30
0.0
 40
1.599999
 50
106.191280
 51
180.0
  0
LINE
  8
7
 10
948.985680
 20
-209.9
 30
0.0
 11
948.985680
 21
-208.6
 31
0.0
  0
LINE
  8
7
 10
940.635684
 20
-209.9
 30
0.0
 11
940.635684
 21
-208.6
 31
0.0
  0
POINT
  8
7
 10
944.810682
 20
-210.7
 30
0.0
  0
LINE
  8
7
 10
944.810682
 20
-210.7
 30
0.0
 11
949.810682
 21
-210.7
 31
0.0
  0
LINE
  8
7
 10
949.810682
 20
-209.9
 30
0.0
 11
939.810682
 21
-209.9
 31
0.0
  0
LINE
  8
7
 10
939.810682
 20
-210.7
 30
0.0
 11
944.810682
 21
-210.7
 31
0.0
  0
LINE
  8
7
 10
949.810682
 20
-209.9
 30
0.0
 11
949.810682
 21
-210.7
 31
0.0
  0
LINE
  8
7
 10
939.810682
 20
-210.7
 30
0.0
 11
939.810682
 21
-209.9
 31
0.0
  0
LINE
  8
7
 10
944.810682
 20
-208.6
 30
0.0
 11
945.561234
 21
-209.9
 31
0.0
  0
LINE
  8
7
 10
944.060129
 20
-208.6
 30
0.0
 11
944.810682
 21
-209.9
 31
0.0
  0
LINE
  8
7
 10
949.439172
 20
-251.4
 30
0.0
 11
949.029752
 21
-251.4
 31
0.0
  0
LINE
  8
7
 10
947.901402
 20
-258.3
 30
0.0
 11
948.277412
 21
-257.5
 31
0.0
  0
LINE
  8
7
 10
948.277412
 20
-257.5
 30
0.0
 11
948.516392
 21
-256.5
 31
0.0
  0
LINE
  8
7
 10
948.516392
 20
-256.5
 30
0.0
 11
948.609482
 21
-255.5
 31
0.0
  0
LINE
  8
7
 10
948.609482
 20
-255.5
 30
0.0
 11
948.553232
 21
-254.5
 31
0.0
  0
LINE
  8
7
 10
948.553232
 20
-254.5
 30
0.0
 11
948.349732
 21
-253.5
 31
0.0
  0
LINE
  8
7
 10
948.349732
 20
-253.5
 30
0.0
 11
948.006512
 21
-252.7
 31
0.0
  0
LINE
  8
7
 10
948.006512
 20
-252.7
 30
0.0
 11
947.536292
 21
-251.9
 31
0.0
  0
LINE
  8
7
 10
947.637442
 20
-256.4
 30
0.0
 11
947.709512
 21
-255.5
 31
0.0
  0
LINE
  8
7
 10
947.709512
 20
-255.5
 30
0.0
 11
947.675472
 21
-254.6
 31
0.0
  0
LINE
  8
7
 10
947.675472
 20
-254.6
 30
0.0
 11
947.536522
 21
-253.8
 31
0.0
  0
LINE
  8
7
 10
949.029752
 20
-251.4
 30
0.0
 11
949.029752
 21
-250.1
 31
0.0
  0
LINE
  8
7
 10
951.730552
 20
-254.3
 30
0.0
 11
951.730552
 21
-244.3
 31
0.0
  0
ARC
  8
7
 10
952.730552
 20
-263.2
 30
0.0
 40
1.000000
 50
180.000000
 51
270.000000
  0
LINE
  8
7
 10
951.730552
 20
-254.3
 30
0.0
 11
951.730552
 21
-263.2
 31
0.0
  0
LINE
  8
7
 10
954.502092
 20
-264.2
 30
0.0
 11
954.502092
 21
-254.3
 31
0.0
  0
LINE
  8
7
 10
949.439172
 20
-260.8
 30
0.0
 11
949.439172
 21
-251.4
 31
0.0
  0
LINE
  8
7
 10
946.956482
 20
-251.2
 30
0.0
 11
946.288562
 21
-250.7
 31
0.0
  0
LINE
  8
7
 10
945.368662
 20
-259.0
 30
0.0
 11
945.742882
 21
-258.6
 31
0.0
  0
LINE
  8
7
 10
945.742882
 20
-258.6
 30
0.0
 11
946.061522
 21
-258.0
 31
0.0
  0
LINE
  8
7
 10
946.061522
 20
-258.0
 30
0.0
 11
946.313372
 21
-257.4
 31
0.0
  0
LINE
  8
7
 10
946.313372
 20
-257.4
 30
0.0
 11
946.489542
 21
-256.7
 31
0.0
  0
LINE
  8
7
 10
946.489542
 20
-256.7
 30
0.0
 11
946.583852
 21
-255.9
 31
0.0
  0
LINE
  8
7
 10
946.583852
 20
-255.9
 30
0.0
 11
946.592962
 21
-255.1
 31
0.0
  0
LINE
  8
7
 10
946.592962
 20
-255.1
 30
0.0
 11
946.516562
 21
-254.4
 31
0.0
  0
LINE
  8
7
 10
946.516562
 20
-254.4
 30
0.0
 11
946.357342
 21
-253.6
 31
0.0
  0
LINE
  8
7
 10
946.357342
 20
-253.6
 30
0.0
 11
946.120902
 21
-253.0
 31
0.0
  0
LINE
  8
7
 10
946.120902
 20
-253.0
 30
0.0
 11
945.815572
 21
-252.4
 31
0.0
  0
LINE
  8
7
 10
945.815572
 20
-252.4
 30
0.0
 11
945.452112
 21
-251.9
 31
0.0
  0
LINE
  8
7
 10
944.243532
 20
-260.0
 30
0.0
 11
944.804522
 21
-260.0
 31
0.0
  0
LINE
  8
7
 10
944.804522
 20
-260.0
 30
0.0
 11
945.362942
 21
-259.9
 31
0.0
  0
LINE
  8
7
 10
945.362942
 20
-259.9
 30
0.0
 11
945.898902
 21
-259.7
 31
0.0
  0
LINE
  8
7
 10
945.898902
 20
-259.7
 30
0.0
 11
946.393272
 21
-259.2
 31
0.0
  0
LINE
  8
7
 10
946.393272
 20
-259.2
 30
0.0
 11
946.828452
 21
-258.7
 31
0.0
  0
LINE
  8
7
 10
946.967292
 20
-252.3
 30
0.0
 11
946.557302
 21
-251.7
 31
0.0
  0
LINE
  8
7
 10
946.557302
 20
-251.7
 30
0.0
 11
946.082262
 21
-251.2
 31
0.0
  0
LINE
  8
7
 10
946.082262
 20
-251.2
 30
0.0
 11
945.559112
 21
-250.9
 31
0.0
  0
LINE
  8
7
 10
945.559112
 20
-250.9
 30
0.0
 11
945.006492
 21
-250.7
 31
0.0
  0
LINE
  8
7
 10
945.006492
 20
-250.7
 30
0.0
 11
944.444112
 21
-250.7
 31
0.0
  0
LINE
  8
7
 10
944.444112
 20
-250.7
 30
0.0
 11
943.892012
 21
-250.9
 31
0.0
  0
LINE
  8
7
 10
946.464762
 20
-255.3
 30
0.0
 11
944.344182
 21
-255.3
 31
0.0
  0
LINE
  8
7
 10
945.146062
 20
-250.9
 30
0.0
 11
946.464762
 21
-255.3
 31
0.0
  0
LINE
  8
7
 10
945.153952
 20
-259.7
 30
0.0
 11
946.464762
 21
-255.3
 31
0.0
  0
LINE
  8
7
 10
940.965342
 20
-255.0
 30
0.0
 11
940.965342
 21
-253.4
 31
0.0
  0
LINE
  8
7
 10
940.965342
 20
-257.1
 30
0.0
 11
940.965342
 21
-255.6
 31
0.0
  0
LINE
  8
7
 10
941.353162
 20
-253.4
 30
0.0
 11
940.965342
 21
-253.4
 31
0.0
  0
LINE
  8
7
 10
943.259732
 20
-250.5
 30
0.0
 11
942.554002
 21
-250.9
 31
0.0
  0
LINE
  8
7
 10
941.353162
 20
-255.0
 30
0.0
 11
942.490742
 21
-255.0
 31
0.0
  0
LINE
  8
7
 10
941.353162
 20
-255.6
 30
0.0
 11
942.490742
 21
-255.6
 31
0.0
  0
LINE
  8
7
 10
941.353162
 20
-255.0
 30
0.0
 11
941.353162
 21
-253.4
 31
0.0
  0
LINE
  8
7
 10
941.353162
 20
-257.1
 30
0.0
 11
941.353162
 21
-255.6
 31
0.0
  0
LINE
  8
7
 10
940.965342
 20
-257.1
 30
0.0
 11
941.353162
 21
-257.1
 31
0.0
  0
LINE
  8
7
 10
942.490742
 20
-255.0
 30
0.0
 11
942.490742
 21
-255.6
 31
0.0
  0
LINE
  8
7
 10
943.699962
 20
-259.7
 30
0.0
 11
944.243532
 21
-260.0
 31
0.0
  0
LINE
  8
7
 10
943.033362
 20
-259.7
 30
0.0
 11
944.344182
 21
-255.3
 31
0.0
  0
LINE
  8
7
 10
943.025472
 20
-250.9
 30
0.0
 11
944.344182
 21
-255.3
 31
0.0
  0
LINE
  8
7
 10
941.120832
 20
-244.3
 30
0.0
 11
941.120832
 21
-250.9
 31
0.0
  0
LINE
  8
7
 10
946.288562
 20
-250.7
 30
0.0
 11
945.557282
 21
-250.3
 31
0.0
  0
LINE
  8
7
 10
945.557282
 20
-250.3
 30
0.0
 11
944.789712
 21
-250.2
 31
0.0
  0
LINE
  8
7
 10
944.789712
 20
-250.2
 30
0.0
 11
944.014292
 21
-250.2
 31
0.0
  0
LINE
  8
7
 10
944.014292
 20
-250.2
 30
0.0
 11
943.259732
 21
-250.5
 31
0.0
  0
ARC
  8
7
 10
939.913932
 20
-244.8
 30
0.0
 40
0.500000
 50
90.000000
 51
180.000000
  0
ARC
  8
7
 10
938.509652
 20
-244.8
 30
0.0
 40
0.500000
 50
90.000000
 51
180.000000
  0
LINE
  8
7
 10
939.144092
 20
-250.9
 30
0.0
 11
938.222862
 21
-255.3
 31
0.0
  0
LINE
  8
7
 10
939.149292
 20
-259.7
 30
0.0
 11
938.222862
 21
-255.3
 31
0.0
  0
LINE
  8
7
 10
939.957032
 20
-255.6
 30
0.0
 11
939.957032
 21
-255.0
 31
0.0
  0
LINE
  8
7
 10
939.413932
 20
-244.8
 30
0.0
 11
939.413932
 21
-250.9
 31
0.0
  0
LINE
  8
7
 10
939.144092
 20
-250.9
 30
0.0
 11
945.146062
 21
-250.9
 31
0.0
  0
LINE
  8
7
 10
939.149292
 20
-259.7
 30
0.0
 11
945.153952
 21
-259.7
 31
0.0
  0
LINE
  8
7
 10
939.957032
 20
-255.0
 30
0.0
 11
940.965342
 21
-255.0
 31
0.0
  0
LINE
  8
7
 10
939.957032
 20
-255.6
 30
0.0
 11
940.965342
 21
-255.6
 31
0.0
  0
LINE
  8
7
 10
938.009652
 20
-260.8
 30
0.0
 11
938.009652
 21
-264.2
 31
0.0
  0
LINE
  8
7
 10
939.413932
 20
-260.8
 30
0.0
 11
939.413932
 21
-263.2
 31
0.0
  0
ARC
  8
7
 10
936.132352
 20
-263.2
 30
0.0
 40
1.000000
 50
180.000000
 51
270.000000
  0
LINE
  8
7
 10
935.132352
 20
-260.8
 30
0.0
 11
935.132352
 21
-263.2
 31
0.0
  0
ARC
  8
7
 10
940.413932
 20
-263.2
 30
0.0
 40
1.000000
 50
180.000000
 51
270.000000
  0
LINE
  8
7
 10
939.413932
 20
-259.7
 30
0.0
 11
939.413932
 21
-260.8
 31
0.0
  0
LINE
  8
7
 10
941.120832
 20
-259.7
 30
0.0
 11
941.120832
 21
-260.8
 31
0.0
  0
LINE
  8
7
 10
935.132352
 20
-260.8
 30
0.0
 11
935.132352
 21
-244.3
 31
0.0
  0
LINE
  8
7
 10
938.009652
 20
-244.8
 30
0.0
 11
938.009652
 21
-260.8
 31
0.0
  0
LINE
  8
7
 10
942.390012
 20
-259.7
 30
0.0
 11
943.079542
 21
-260.2
 31
0.0
  0
LINE
  8
7
 10
943.079542
 20
-260.2
 30
0.0
 11
943.824562
 21
-260.5
 31
0.0
  0
LINE
  8
7
 10
943.824562
 20
-260.5
 30
0.0
 11
944.597482
 21
-260.6
 31
0.0
  0
LINE
  8
7
 10
944.597482
 20
-260.6
 30
0.0
 11
945.369672
 21
-260.5
 31
0.0
  0
LINE
  8
7
 10
945.369672
 20
-260.5
 30
0.0
 11
946.112532
 21
-260.2
 31
0.0
  0
LINE
  8
7
 10
946.112532
 20
-260.2
 30
0.0
 11
946.798532
 21
-259.7
 31
0.0
  0
LINE
  8
7
 10
941.120832
 20
-250.1
 30
0.0
 11
949.029752
 21
-250.1
 31
0.0
  0
LINE
  8
7
 10
951.730552
 20
-260.8
 30
0.0
 11
939.413932
 21
-260.8
 31
0.0
  0
LINE
  8
7
 10
946.798532
 20
-259.7
 30
0.0
 11
947.402282
 21
-259.1
 31
0.0
  0
LINE
  8
7
 10
947.402282
 20
-259.1
 30
0.0
 11
947.901402
 21
-258.3
 31
0.0
  0
LINE
  8
7
 10
947.536292
 20
-251.9
 30
0.0
 11
946.956482
 21
-251.2
 31
0.0
  0
LINE
  8
7
 10
946.828452
 20
-258.7
 30
0.0
 11
947.188922
 21
-258.0
 31
0.0
  0
LINE
  8
7
 10
947.188922
 20
-258.0
 30
0.0
 11
947.461822
 21
-257.2
 31
0.0
  0
LINE
  8
7
 10
947.461822
 20
-257.2
 30
0.0
 11
947.637442
 21
-256.4
 31
0.0
  0
LINE
  8
7
 10
947.536522
 20
-253.8
 30
0.0
 11
947.297622
 21
-253.0
 31
0.0
  0
LINE
  8
7
 10
947.297622
 20
-253.0
 30
0.0
 11
946.967292
 21
-252.3
 31
0.0
  0
LINE
  8
7
 10
949.410682
 20
-265.2
 30
0.0
 11
940.210681
 21
-265.2
 31
0.0
  0
LINE
  8
7
 10
940.210682
 20
-265.2
 30
0.0
 11
940.210682
 21
-268.8
 31
0.0
  0
LINE
  8
7
 10
940.210687
 20
-268.8
 30
0.0
 11
940.910687
 21
-269.2
 31
0.0
  0
LINE
  8
7
 10
940.910683
 20
-269.2
 30
0.0
 11
948.710681
 21
-269.2
 31
0.0
  0
LINE
  8
7
 10
948.710677
 20
-269.2
 30
0.0
 11
949.410676
 21
-268.8
 31
0.0
  0
LINE
  8
7
 10
949.410681
 20
-268.8
 30
0.0
 11
949.410681
 21
-265.2
 31
0.0
  0
LINE
  8
7
 10
947.110682
 20
-268.8
 30
0.0
 11
947.110682
 21
-265.2
 31
0.0
  0
LINE
  8
7
 10
942.510682
 20
-268.8
 30
0.0
 11
942.510682
 21
-265.2
 31
0.0
  0
ARC
  8
7
 10
948.260681
 20
-267.3
 30
0.0
 40
1.853135
 50
231.642265
 51
270.0
  0
ARC
  8
7
 10
944.810682
 20
-262.3
 30
0.0
 40
6.812498
 50
250.268330
 51
289.731580
  0
ARC
  8
7
 10
941.360683
 20
-267.3
 30
0.0
 40
1.853133
 50
270.0
 51
308.357670
  0
LINE
  8
7
 10
949.410682
 20
-265.2
 30
0.0
 11
949.810682
 21
-265.2
 31
0.0
  0
LINE
  8
7
 10
949.810682
 20
-265.2
 30
0.0
 11
949.810682
 21
-264.2
 31
0.0
  0
LINE
  8
7
 10
949.810682
 20
-264.2
 30
0.0
 11
939.810682
 21
-264.2
 31
0.0
  0
LINE
  8
7
 10
939.810682
 20
-264.2
 30
0.0
 11
939.810682
 21
-265.2
 31
0.0
  0
LINE
  8
7
 10
939.810682
 20
-265.2
 30
0.0
 11
940.210681
 21
-265.2
 31
0.0
  0
POINT
  8
7
 10
944.810682
 20
-264.2
 30
0.0
  0
LINE
  8
7
 62
     4
  6
DASHED
 10
951.810682
 20
-264.2
 30
0.0
 11
951.810682
 21
-213.2
 31
0.0
  0
LINE
  8
7
 10
954.502092
 20
-254.3
 30
0.0
 11
954.502092
 21
-213.6
 31
0.0
  0
LINE
  8
7
 10
937.810682
 20
-244.3
 30
0.0
 11
937.810682
 21
-215.4
 31
0.0
  0
LINE
  8
7
 10
939.810682
 20
-210.7
 30
0.0
 11
939.810682
 21
-189.7
 31
0.0
  0
LINE
  8
7
 10
945.810682
 20
-183.7
 30
0.0
 11
1062.810682
 21
-183.7
 31
0.0
  0
LINE
  8
7
 10
938.610682
 20
-213.2
 30
0.0
 11
1070.010682
 21
-213.2
 31
0.0
  0
POINT
  8
7
 10
1073.810686
 20
-214.2
 30
0.0
  0
POINT
  8
7
 10
934.810680
 20
-214.2
 30
0.0
  0
POINT
  8
7
 10
939.810680
 20
-189.7
 30
0.0
  0
POINT
  8
7
 10
1068.810674
 20
-189.7
 30
0.0
  0
LINE
  8
7
 10
807.634208
 20
-183.7
 30
0.0
 11
805.134208
 21
-183.7
 31
0.0
  0
LINE
  8
7
 10
932.487462
 20
-254.6
 30
0.0
 11
932.392522
 21
-254.1
 31
0.0
  0
LINE
  8
7
 10
932.392522
 20
-254.1
 30
0.0
 11
932.247572
 21
-253.5
 31
0.0
  0
LINE
  8
7
 10
932.247572
 20
-253.5
 30
0.0
 11
932.055772
 21
-253.0
 31
0.0
  0
LINE
  8
7
 10
932.055772
 20
-253.0
 30
0.0
 11
931.821302
 21
-252.5
 31
0.0
  0
LINE
  8
7
 10
931.475832
 20
-259.9
 30
0.0
 11
931.892212
 21
-259.6
 31
0.0
  0
LINE
  8
7
 10
931.892212
 20
-259.6
 30
0.0
 11
932.281442
 21
-259.3
 31
0.0
  0
LINE
  8
7
 10
932.281442
 20
-259.3
 30
0.0
 11
932.634892
 21
-258.9
 31
0.0
  0
LINE
  8
7
 10
932.634892
 20
-251.9
 30
0.0
 11
932.284842
 21
-251.5
 31
0.0
  0
LINE
  8
7
 10
932.284842
 20
-251.5
 30
0.0
 11
931.899582
 21
-251.1
 31
0.0
  0
LINE
  8
7
 10
931.899582
 20
-251.1
 30
0.0
 11
931.487502
 21
-250.9
 31
0.0
  0
LINE
  8
7
 10
932.398002
 20
-255.3
 30
0.0
 11
929.823542
 21
-255.3
 31
0.0
  0
LINE
  8
7
 10
931.762932
 20
-258.5
 30
0.0
 11
932.018912
 21
-258.0
 31
0.0
  0
LINE
  8
7
 10
932.018912
 20
-258.0
 30
0.0
 11
932.228182
 21
-257.4
 31
0.0
  0
LINE
  8
7
 10
932.228182
 20
-257.4
 30
0.0
 11
932.385642
 21
-256.9
 31
0.0
  0
LINE
  8
7
 10
932.385642
 20
-256.9
 30
0.0
 11
932.487462
 21
-256.2
 31
0.0
  0
LINE
  8
7
 10
931.486692
 20
-250.9
 30
0.0
 11
932.398002
 21
-255.3
 31
0.0
  0
LINE
  8
7
 10
931.501332
 20
-259.7
 30
0.0
 11
932.398002
 21
-255.3
 31
0.0
  0
LINE
  8
7
 10
929.023982
 20
-255.0
 30
0.0
 11
929.023982
 21
-255.6
 31
0.0
  0
LINE
  8
7
 10
925.486904
 20
-255.0
 30
0.0
 11
927.095214
 21
-255.0
 31
0.0
  0
LINE
  8
7
 10
925.486904
 20
-255.6
 30
0.0
 11
927.095214
 21
-255.6
 31
0.0
  0
LINE
  8
7
 10
925.486904
 20
-255.6
 30
0.0
 11
925.486904
 21
-255.0
 31
0.0
  0
LINE
  8
7
 10
927.486402
 20
-255.0
 30
0.0
 11
929.023982
 21
-255.0
 31
0.0
  0
LINE
  8
7
 10
927.486402
 20
-255.6
 30
0.0
 11
929.023982
 21
-255.6
 31
0.0
  0
LINE
  8
7
 10
927.095214
 20
-255.0
 30
0.0
 11
927.095214
 21
-253.4
 31
0.0
  0
LINE
  8
7
 10
927.095214
 20
-257.2
 30
0.0
 11
927.095214
 21
-255.6
 31
0.0
  0
LINE
  8
7
 10
927.486402
 20
-255.0
 30
0.0
 11
927.486402
 21
-253.4
 31
0.0
  0
LINE
  8
7
 10
927.486402
 20
-257.2
 30
0.0
 11
927.486402
 21
-255.6
 31
0.0
  0
LINE
  8
7
 10
927.095214
 20
-257.2
 30
0.0
 11
927.486402
 21
-257.2
 31
0.0
  0
LINE
  8
7
 10
927.486402
 20
-253.4
 30
0.0
 11
927.095214
 21
-253.4
 31
0.0
  0
LINE
  8
7
 10
928.926252
 20
-259.7
 30
0.0
 11
929.822932
 21
-255.3
 31
0.0
  0
LINE
  8
7
 10
928.912222
 20
-250.9
 30
0.0
 11
929.823542
 21
-255.3
 31
0.0
  0
LINE
  8
7
 10
931.486692
 20
-250.9
 30
0.0
 11
925.734504
 21
-250.9
 31
0.0
  0
LINE
  8
7
 10
925.739714
 20
-259.7
 30
0.0
 11
931.501332
 21
-259.7
 31
0.0
  0
LINE
  8
7
 10
929.770732
 20
-244.3
 30
0.0
 11
929.770732
 21
-250.9
 31
0.0
  0
LINE
  8
7
 10
925.739714
 20
-259.7
 30
0.0
 11
924.813284
 21
-255.3
 31
0.0
  0
LINE
  8
7
 10
925.734504
 20
-250.9
 30
0.0
 11
924.813284
 21
-255.3
 31
0.0
  0
ARC
  8
7
 10
930.770732
 20
-263.2
 30
0.0
 40
1.000000
 50
180.000000
 51
270.000000
  0
LINE
  8
7
 10
929.770732
 20
-260.8
 30
0.0
 11
929.770732
 21
-263.2
 31
0.0
  0
LINE
  8
7
 10
929.770732
 20
-259.7
 30
0.0
 11
929.770732
 21
-260.8
 31
0.0
  0
LINE
  8
7
 10
932.634892
 20
-260.8
 30
0.0
 11
932.634892
 21
-250.8
 31
0.0
  0
LINE
  8
7
 10
851.707015
 20
-250.9
 30
0.0
 11
853.131606
 21
-255.3
 31
0.0
  0
LINE
  8
7
 10
851.701810
 20
-259.7
 30
0.0
 11
853.131606
 21
-255.3
 31
0.0
  0
LINE
  8
7
 10
848.634208
 20
-218.2
 30
0.0
 11
848.634208
 21
-210.7
 31
0.0
  0
ARC
  8
7
 10
847.134208
 20
-218.2
 30
0.0
 40
1.500000
 50
270.000000
 51
360.000000
  0
ARC
  8
7
 10
840.134208
 20
-217.3
 30
0.0
 40
12.0
 50
73.808650
 51
106.191340
  0
POINT
  8
7
 10
840.134208
 20
-210.7
 30
0.0
  0
LINE
  8
7
 10
835.634208
 20
-208.6
 30
0.0
 11
844.634208
 21
-208.6
 31
0.0
  0
LINE
  8
7
 10
844.634208
 20
-208.6
 30
0.0
 11
844.634208
 21
-207.3
 31
0.0
  0
LINE
  8
7
 10
835.634208
 20
-208.6
 30
0.0
 11
835.634208
 21
-207.3
 31
0.0
  0
ARC
  8
7
 10
843.034209
 20
-207.3
 30
0.0
 40
1.599999
 50
0.0
 51
73.808590
  0
ARC
  8
7
 10
837.234207
 20
-207.3
 30
0.0
 40
1.599999
 50
106.191280
 51
180.0
  0
LINE
  8
7
 10
844.309206
 20
-209.9
 30
0.0
 11
844.309206
 21
-208.6
 31
0.0
  0
LINE
  8
7
 10
835.959210
 20
-209.9
 30
0.0
 11
835.959210
 21
-208.6
 31
0.0
  0
POINT
  8
7
 10
840.134208
 20
-210.7
 30
0.0
  0
LINE
  8
7
 10
840.134208
 20
-210.7
 30
0.0
 11
845.134208
 21
-210.7
 31
0.0
  0
LINE
  8
7
 10
845.134208
 20
-209.9
 30
0.0
 11
835.134208
 21
-209.9
 31
0.0
  0
LINE
  8
7
 10
835.134208
 20
-210.7
 30
0.0
 11
840.134208
 21
-210.7
 31
0.0
  0
LINE
  8
7
 10
845.134208
 20
-209.9
 30
0.0
 11
845.134208
 21
-210.7
 31
0.0
  0
LINE
  8
7
 10
835.134208
 20
-210.7
 30
0.0
 11
835.134208
 21
-209.9
 31
0.0
  0
LINE
  8
7
 10
840.134208
 20
-208.6
 30
0.0
 11
840.884760
 21
-209.9
 31
0.0
  0
LINE
  8
7
 10
839.383655
 20
-208.6
 30
0.0
 11
840.134208
 21
-209.9
 31
0.0
  0
LINE
  8
7
 10
849.558491
 20
-253.4
 30
0.0
 11
849.946304
 21
-253.4
 31
0.0
  0
LINE
  8
7
 10
849.946304
 20
-257.2
 30
0.0
 11
849.558491
 21
-257.2
 31
0.0
  0
LINE
  8
7
 10
849.558491
 20
-257.2
 30
0.0
 11
849.558491
 21
-255.6
 31
0.0
  0
LINE
  8
7
 10
849.558491
 20
-255.0
 30
0.0
 11
849.558491
 21
-253.4
 31
0.0
  0
LINE
  8
7
 10
849.946304
 20
-257.2
 30
0.0
 11
849.946304
 21
-255.6
 31
0.0
  0
LINE
  8
7
 10
849.946304
 20
-255.0
 30
0.0
 11
849.946304
 21
-253.4
 31
0.0
  0
LINE
  8
7
 10
849.558491
 20
-255.6
 30
0.0
 11
848.420907
 21
-255.6
 31
0.0
  0
LINE
  8
7
 10
849.558491
 20
-255.0
 30
0.0
 11
848.420907
 21
-255.0
 31
0.0
  0
LINE
  8
7
 10
850.954616
 20
-255.6
 30
0.0
 11
850.954616
 21
-255.0
 31
0.0
  0
LINE
  8
7
 10
850.954616
 20
-255.6
 30
0.0
 11
849.946304
 21
-255.6
 31
0.0
  0
LINE
  8
7
 10
850.954616
 20
-255.0
 30
0.0
 11
849.946304
 21
-255.0
 31
0.0
  0
LINE
  8
7
 10
848.420907
 20
-255.0
 30
0.0
 11
848.420907
 21
-255.6
 31
0.0
  0
LINE
  8
7
 10
847.518636
 20
-259.7
 30
0.0
 11
846.621961
 21
-255.3
 31
0.0
  0
LINE
  8
7
 10
844.957388
 20
-250.9
 30
0.0
 11
844.484601
 21
-251.2
 31
0.0
  0
LINE
  8
7
 10
844.493352
 20
-259.6
 30
0.0
 11
844.969060
 21
-259.9
 31
0.0
  0
LINE
  8
7
 10
847.532667
 20
-250.9
 30
0.0
 11
846.621350
 21
-255.3
 31
0.0
  0
LINE
  8
7
 10
850.528395
 20
-250.9
 30
0.0
 11
850.528395
 21
-244.3
 31
0.0
  0
LINE
  8
7
 10
843.960177
 20
-254.6
 30
0.0
 11
843.912037
 21
-255.4
 31
0.0
  0
LINE
  8
7
 10
843.912037
 20
-255.4
 30
0.0
 11
843.943216
 21
-256.1
 31
0.0
  0
LINE
  8
7
 10
844.049176
 20
-251.6
 30
0.0
 11
843.663679
 21
-252.1
 31
0.0
  0
LINE
  8
7
 10
843.663679
 20
-252.1
 30
0.0
 11
843.339236
 21
-252.7
 31
0.0
  0
LINE
  8
7
 10
843.339236
 20
-252.7
 30
0.0
 11
843.085210
 21
-253.4
 31
0.0
  0
LINE
  8
7
 10
843.085210
 20
-257.4
 30
0.0
 11
843.340629
 21
-258.1
 31
0.0
  0
LINE
  8
7
 10
843.340629
 20
-258.1
 30
0.0
 11
843.667099
 21
-258.7
 31
0.0
  0
LINE
  8
7
 10
843.667099
 20
-258.7
 30
0.0
 11
844.055109
 21
-259.2
 31
0.0
  0
LINE
  8
7
 10
844.623586
 20
-252.5
 30
0.0
 11
844.322830
 21
-253.1
 31
0.0
  0
LINE
  8
7
 10
844.322830
 20
-253.1
 30
0.0
 11
844.098862
 21
-253.9
 31
0.0
  0
LINE
  8
7
 10
844.098862
 20
-253.9
 30
0.0
 11
843.960177
 21
-254.6
 31
0.0
  0
LINE
  8
7
 10
844.958200
 20
-250.9
 30
0.0
 11
844.046882
 21
-255.3
 31
0.0
  0
LINE
  8
7
 10
843.943216
 20
-256.1
 30
0.0
 11
844.039214
 21
-256.8
 31
0.0
  0
LINE
  8
7
 10
844.039214
 20
-256.8
 30
0.0
 11
844.197441
 21
-257.4
 31
0.0
  0
LINE
  8
7
 10
844.197441
 20
-257.4
 30
0.0
 11
844.413633
 21
-258.0
 31
0.0
  0
LINE
  8
7
 10
844.413633
 20
-258.0
 30
0.0
 11
844.681959
 21
-258.5
 31
0.0
  0
LINE
  8
7
 10
844.943557
 20
-259.7
 30
0.0
 11
844.046882
 21
-255.3
 31
0.0
  0
LINE
  8
7
 10
844.484601
 20
-251.2
 30
0.0
 11
844.049176
 21
-251.6
 31
0.0
  0
LINE
  8
7
 10
844.046882
 20
-255.3
 30
0.0
 11
846.621350
 21
-255.3
 31
0.0
  0
LINE
  8
7
 10
844.055109
 20
-259.2
 30
0.0
 11
844.493352
 21
-259.6
 31
0.0
  0
ARC
  8
7
 10
849.528395
 20
-263.2
 30
0.0
 40
1.000000
 50
270.000000
 51
360.000000
  0
LINE
  8
7
 10
850.528395
 20
-260.8
 30
0.0
 11
850.528395
 21
-263.2
 31
0.0
  0
LINE
  8
7
 10
840.331231
 20
-260.8
 30
0.0
 11
840.331231
 21
-263.2
 31
0.0
  0
ARC
  8
7
 10
839.331231
 20
-263.2
 30
0.0
 40
1.000000
 50
270.000000
 51
360.000000
  0
LINE
  8
7
 10
840.331231
 20
-260.8
 30
0.0
 11
850.528395
 21
-260.8
 31
0.0
  0
LINE
  8
7
 10
838.136109
 20
-244.3
 30
0.0
 11
838.136109
 21
-264.2
 31
0.0
  0
LINE
  8
7
 10
850.528395
 20
-260.8
 30
0.0
 11
850.528395
 21
-259.7
 31
0.0
  0
LINE
  8
7
 10
840.331231
 20
-244.3
 30
0.0
 11
840.331231
 21
-260.8
 31
0.0
  0
LINE
  8
7
 10
843.085210
 20
-244.3
 30
0.0
 11
843.085210
 21
-260.8
 31
0.0
  0
LINE
  8
7
 10
841.863320
 20
-244.3
 30
0.0
 11
841.863320
 21
-260.8
 31
0.0
  0
LINE
  8
7
 10
833.297930
 20
-250.8
 30
0.0
 11
832.196508
 21
-252.2
 31
0.0
  0
LINE
  8
7
 10
832.196508
 20
-252.2
 30
0.0
 11
833.397379
 21
-252.2
 31
0.0
  0
LINE
  8
7
 10
830.487857
 20
-255.6
 30
0.0
 11
830.487857
 21
-255.0
 31
0.0
  0
LINE
  8
7
 10
831.295597
 20
-259.7
 30
0.0
 11
832.222023
 21
-255.3
 31
0.0
  0
LINE
  8
7
 10
831.300802
 20
-250.9
 30
0.0
 11
832.222023
 21
-255.3
 31
0.0
  0
LINE
  8
7
 10
834.498802
 20
-250.8
 30
0.0
 11
833.397379
 21
-252.2
 31
0.0
  0
LINE
  8
7
 10
833.297930
 20
-250.8
 30
0.0
 11
835.229877
 21
-250.8
 31
0.0
  0
LINE
  8
7
 10
827.954148
 20
-255.0
 30
0.0
 11
827.954148
 21
-255.6
 31
0.0
  0
LINE
  8
7
 10
829.479544
 20
-257.1
 30
0.0
 11
829.091732
 21
-257.1
 31
0.0
  0
LINE
  8
7
 10
829.091732
 20
-257.1
 30
0.0
 11
829.091732
 21
-255.6
 31
0.0
  0
LINE
  8
7
 10
829.091732
 20
-255.0
 30
0.0
 11
829.091732
 21
-253.4
 31
0.0
  0
LINE
  8
7
 10
829.091732
 20
-255.6
 30
0.0
 11
827.954148
 21
-255.6
 31
0.0
  0
LINE
  8
7
 10
829.091732
 20
-255.0
 30
0.0
 11
827.954148
 21
-255.0
 31
0.0
  0
LINE
  8
7
 10
827.890889
 20
-250.9
 30
0.0
 11
827.185154
 21
-250.5
 31
0.0
  0
LINE
  8
7
 10
829.091732
 20
-253.4
 30
0.0
 11
829.479544
 21
-253.4
 31
0.0
  0
LINE
  8
7
 10
829.479544
 20
-257.1
 30
0.0
 11
829.479544
 21
-255.6
 31
0.0
  0
LINE
  8
7
 10
829.479544
 20
-255.0
 30
0.0
 11
829.479544
 21
-253.4
 31
0.0
  0
LINE
  8
7
 10
825.290942
 20
-259.7
 30
0.0
 11
823.980123
 21
-255.3
 31
0.0
  0
LINE
  8
7
 10
825.298831
 20
-250.9
 30
0.0
 11
823.980123
 21
-255.3
 31
0.0
  0
LINE
  8
7
 10
823.980123
 20
-255.3
 30
0.0
 11
826.100708
 21
-255.3
 31
0.0
  0
LINE
  8
7
 10
826.552877
 20
-250.9
 30
0.0
 11
826.000775
 21
-250.7
 31
0.0
  0
LINE
  8
7
 10
826.000775
 20
-250.7
 30
0.0
 11
825.438393
 21
-250.7
 31
0.0
  0
LINE
  8
7
 10
825.438393
 20
-250.7
 30
0.0
 11
824.885778
 21
-250.9
 31
0.0
  0
LINE
  8
7
 10
824.885778
 20
-250.9
 30
0.0
 11
824.362627
 21
-251.2
 31
0.0
  0
LINE
  8
7
 10
824.362627
 20
-251.2
 30
0.0
 11
823.887589
 21
-251.7
 31
0.0
  0
LINE
  8
7
 10
823.887589
 20
-251.7
 30
0.0
 11
823.477597
 21
-252.3
 31
0.0
  0
LINE
  8
7
 10
823.616437
 20
-258.7
 30
0.0
 11
824.051614
 21
-259.2
 31
0.0
  0
LINE
  8
7
 10
824.051614
 20
-259.2
 30
0.0
 11
824.545991
 21
-259.7
 31
0.0
  0
LINE
  8
7
 10
824.545991
 20
-259.7
 30
0.0
 11
825.081943
 21
-259.9
 31
0.0
  0
LINE
  8
7
 10
825.081943
 20
-259.9
 30
0.0
 11
825.640368
 21
-260.0
 31
0.0
  0
LINE
  8
7
 10
825.640368
 20
-260.0
 30
0.0
 11
826.201360
 21
-260.0
 31
0.0
  0
LINE
  8
7
 10
824.992782
 20
-251.9
 30
0.0
 11
824.629314
 21
-252.4
 31
0.0
  0
LINE
  8
7
 10
824.629314
 20
-252.4
 30
0.0
 11
824.323986
 21
-253.0
 31
0.0
  0
LINE
  8
7
 10
824.323986
 20
-253.0
 30
0.0
 11
824.087547
 21
-253.6
 31
0.0
  0
LINE
  8
7
 10
824.087547
 20
-253.6
 30
0.0
 11
823.928324
 21
-254.4
 31
0.0
  0
LINE
  8
7
 10
823.928324
 20
-254.4
 30
0.0
 11
823.851925
 21
-255.1
 31
0.0
  0
LINE
  8
7
 10
823.851925
 20
-255.1
 30
0.0
 11
823.861038
 21
-255.9
 31
0.0
  0
LINE
  8
7
 10
823.861038
 20
-255.9
 30
0.0
 11
823.955343
 21
-256.7
 31
0.0
  0
LINE
  8
7
 10
823.955343
 20
-256.7
 30
0.0
 11
824.131520
 21
-257.4
 31
0.0
  0
LINE
  8
7
 10
824.131520
 20
-257.4
 30
0.0
 11
824.383365
 21
-258.0
 31
0.0
  0
LINE
  8
7
 10
824.383365
 20
-258.0
 30
0.0
 11
824.702008
 21
-258.6
 31
0.0
  0
LINE
  8
7
 10
824.702008
 20
-258.6
 30
0.0
 11
825.076230
 21
-259.0
 31
0.0
  0
LINE
  8
7
 10
824.156322
 20
-250.7
 30
0.0
 11
823.488406
 21
-251.2
 31
0.0
  0
LINE
  8
7
 10
827.419416
 20
-250.9
 30
0.0
 11
826.100708
 21
-255.3
 31
0.0
  0
LINE
  8
7
 10
827.411527
 20
-259.7
 30
0.0
 11
826.100708
 21
-255.3
 31
0.0
  0
LINE
  8
7
 10
826.201360
 20
-260.0
 30
0.0
 11
826.744922
 21
-259.7
 31
0.0
  0
LINE
  8
7
 10
829.324057
 20
-250.1
 30
0.0
 11
829.324057
 21
-250.9
 31
0.0
  0
LINE
  8
7
 10
827.185154
 20
-250.5
 30
0.0
 11
826.430601
 21
-250.2
 31
0.0
  0
LINE
  8
7
 10
826.430601
 20
-250.2
 30
0.0
 11
825.655178
 21
-250.2
 31
0.0
  0
LINE
  8
7
 10
825.655178
 20
-250.2
 30
0.0
 11
824.887609
 21
-250.3
 31
0.0
  0
LINE
  8
7
 10
824.887609
 20
-250.3
 30
0.0
 11
824.156322
 21
-250.7
 31
0.0
  0
LINE
  8
7
 10
830.487857
 20
-255.6
 30
0.0
 11
829.479544
 21
-255.6
 31
0.0
  0
LINE
  8
7
 10
830.487857
 20
-255.0
 30
0.0
 11
829.479544
 21
-255.0
 31
0.0
  0
LINE
  8
7
 10
831.295597
 20
-259.7
 30
0.0
 11
825.290942
 21
-259.7
 31
0.0
  0
LINE
  8
7
 10
831.300802
 20
-250.9
 30
0.0
 11
825.298831
 21
-250.9
 31
0.0
  0
ARC
  8
7
 10
834.229877
 20
-263.2
 30
0.0
 40
1.000000
 50
270.000000
 51
360.000000
  0
LINE
  8
7
 10
835.229877
 20
-260.8
 30
0.0
 11
835.229877
 21
-263.2
 31
0.0
  0
LINE
  8
7
 10
835.229877
 20
-244.3
 30
0.0
 11
835.229877
 21
-260.8
 31
0.0
  0
LINE
  8
7
 10
833.397379
 20
-252.2
 30
0.0
 11
833.397379
 21
-260.8
 31
0.0
  0
LINE
  8
7
 10
832.196508
 20
-252.2
 30
0.0
 11
832.196508
 21
-260.8
 31
0.0
  0
LINE
  8
7
 10
823.646356
 20
-259.7
 30
0.0
 11
824.332360
 21
-260.2
 31
0.0
  0
LINE
  8
7
 10
824.332360
 20
-260.2
 30
0.0
 11
825.075215
 21
-260.5
 31
0.0
  0
LINE
  8
7
 10
825.075215
 20
-260.5
 30
0.0
 11
825.847403
 21
-260.6
 31
0.0
  0
LINE
  8
7
 10
825.847403
 20
-260.6
 30
0.0
 11
826.620324
 21
-260.5
 31
0.0
  0
LINE
  8
7
 10
826.620324
 20
-260.5
 30
0.0
 11
827.365349
 21
-260.2
 31
0.0
  0
LINE
  8
7
 10
827.365349
 20
-260.2
 30
0.0
 11
828.054881
 21
-259.7
 31
0.0
  0
LINE
  8
7
 10
844.734208
 20
-264.8
 30
0.0
 11
835.534208
 21
-264.8
 31
0.0
  0
LINE
  8
7
 10
835.534209
 20
-264.8
 30
0.0
 11
835.534209
 21
-268.4
 31
0.0
  0
LINE
  8
7
 10
835.534214
 20
-268.4
 30
0.0
 11
836.234213
 21
-268.8
 31
0.0
  0
LINE
  8
7
 10
836.234209
 20
-268.8
 30
0.0
 11
844.034207
 21
-268.8
 31
0.0
  0
LINE
  8
7
 10
844.034203
 20
-268.8
 30
0.0
 11
844.734202
 21
-268.4
 31
0.0
  0
LINE
  8
7
 10
844.734207
 20
-268.4
 30
0.0
 11
844.734207
 21
-264.8
 31
0.0
  0
LINE
  8
7
 10
842.434208
 20
-268.4
 30
0.0
 11
842.434208
 21
-264.8
 31
0.0
  0
LINE
  8
7
 10
837.834208
 20
-268.4
 30
0.0
 11
837.834208
 21
-264.8
 31
0.0
  0
ARC
  8
7
 10
843.584207
 20
-266.9
 30
0.0
 40
1.853135
 50
231.642265
 51
270.0
  0
ARC
  8
7
 10
840.134208
 20
-261.9
 30
0.0
 40
6.812498
 50
250.268330
 51
289.731580
  0
ARC
  8
7
 10
836.684209
 20
-266.9
 30
0.0
 40
1.853133
 50
270.0
 51
308.357670
  0
LINE
  8
7
 10
844.734208
 20
-264.8
 30
0.0
 11
845.134208
 21
-264.8
 31
0.0
  0
LINE
  8
7
 10
845.134208
 20
-264.8
 30
0.0
 11
845.134208
 21
-264.2
 31
0.0
  0
LINE
  8
7
 10
845.134208
 20
-264.2
 30
0.0
 11
835.134208
 21
-264.2
 31
0.0
  0
LINE
  8
7
 10
835.134208
 20
-264.2
 30
0.0
 11
835.134208
 21
-264.8
 31
0.0
  0
LINE
  8
7
 10
835.134208
 20
-264.8
 30
0.0
 11
835.534208
 21
-264.8
 31
0.0
  0
POINT
  8
7
 10
840.134208
 20
-264.2
 30
0.0
  0
LINE
  8
7
 10
833.475009
 20
-219.7
 30
0.0
 11
833.475009
 21
-244.3
 31
0.0
  0
LINE
  8
7
 10
847.634208
 20
-244.3
 30
0.0
 11
847.634208
 21
-219.6
 31
0.0
  0
LINE
  8
7
 10
812.634208
 20
-218.2
 30
0.0
 11
812.634208
 21
-210.7
 31
0.0
  0
ARC
  8
7
 10
814.134208
 20
-218.2
 30
0.0
 40
1.500000
 50
180.000000
 51
270.000000
  0
ARC
  8
7
 10
808.634208
 20
-209.7
 30
0.0
 40
1.000000
 50
180.000000
 51
270.000000
  0
ARC
  8
7
 10
808.634208
 20
-209.7
 30
0.0
 40
3.500000
 50
180.000000
 51
270.000000
  0
LINE
  8
7
 10
812.634208
 20
-213.2
 30
0.0
 11
808.634208
 21
-213.2
 31
0.0
  0
LINE
  8
7
 10
821.005722
 20
-251.4
 30
0.0
 11
821.415136
 21
-251.4
 31
0.0
  0
LINE
  8
7
 10
822.908366
 20
-253.8
 30
0.0
 11
822.769418
 21
-254.6
 31
0.0
  0
LINE
  8
7
 10
822.769418
 20
-254.6
 30
0.0
 11
822.735373
 21
-255.5
 31
0.0
  0
LINE
  8
7
 10
822.735373
 20
-255.5
 30
0.0
 11
822.807444
 21
-256.4
 31
0.0
  0
LINE
  8
7
 10
822.908599
 20
-251.9
 30
0.0
 11
822.438378
 21
-252.7
 31
0.0
  0
LINE
  8
7
 10
822.438378
 20
-252.7
 30
0.0
 11
822.095160
 21
-253.5
 31
0.0
  0
LINE
  8
7
 10
822.095160
 20
-253.5
 30
0.0
 11
821.891658
 21
-254.5
 31
0.0
  0
LINE
  8
7
 10
821.891658
 20
-254.5
 30
0.0
 11
821.835409
 21
-255.5
 31
0.0
  0
LINE
  8
7
 10
821.835409
 20
-255.5
 30
0.0
 11
821.928497
 21
-256.5
 31
0.0
  0
LINE
  8
7
 10
821.928497
 20
-256.5
 30
0.0
 11
822.167473
 21
-257.5
 31
0.0
  0
LINE
  8
7
 10
822.167473
 20
-257.5
 30
0.0
 11
822.543487
 21
-258.3
 31
0.0
  0
LINE
  8
7
 10
821.415136
 20
-251.4
 30
0.0
 11
821.415136
 21
-250.1
 31
0.0
  0
LINE
  8
7
 10
819.181765
 20
-254.3
 30
0.0
 11
819.181765
 21
-244.3
 31
0.0
  0
LINE
  8
7
 10
816.152926
 20
-254.3
 30
0.0
 11
816.152926
 21
-244.3
 31
0.0
  0
ARC
  8
7
 10
818.181765
 20
-263.2
 30
0.0
 40
1.000000
 50
270.000000
 51
360.000000
  0
LINE
  8
7
 10
819.181765
 20
-263.2
 30
0.0
 11
819.181765
 21
-254.3
 31
0.0
  0
LINE
  8
7
 10
816.152926
 20
-264.2
 30
0.0
 11
816.152926
 21
-254.3
 31
0.0
  0
LINE
  8
7
 10
821.005722
 20
-260.8
 30
0.0
 11
821.005722
 21
-251.4
 31
0.0
  0
LINE
  8
7
 62
     4
  6
DASHED
 10
813.134208
 20
-264.2
 30
0.0
 11
813.134208
 21
-219.3
 31
0.0
  0
LINE
  8
7
 10
819.181765
 20
-260.8
 30
0.0
 11
835.229877
 21
-260.8
 31
0.0
  0
LINE
  8
7
 10
829.324057
 20
-250.1
 30
0.0
 11
821.415136
 21
-250.1
 31
0.0
  0
LINE
  8
7
 10
816.152926
 20
-244.3
 30
0.0
 11
850.528395
 21
-244.3
 31
0.0
  0
LINE
  8
7
 10
823.477597
 20
-252.3
 30
0.0
 11
823.147264
 21
-253.0
 31
0.0
  0
LINE
  8
7
 10
823.147264
 20
-253.0
 30
0.0
 11
822.908366
 21
-253.8
 31
0.0
  0
LINE
  8
7
 10
822.807444
 20
-256.4
 30
0.0
 11
822.983064
 21
-257.2
 31
0.0
  0
LINE
  8
7
 10
822.983064
 20
-257.2
 30
0.0
 11
823.255970
 21
-258.0
 31
0.0
  0
LINE
  8
7
 10
823.255970
 20
-258.0
 30
0.0
 11
823.616437
 21
-258.7
 31
0.0
  0
LINE
  8
7
 10
823.488406
 20
-251.2
 30
0.0
 11
822.908599
 21
-251.9
 31
0.0
  0
LINE
  8
7
 10
822.543487
 20
-258.3
 30
0.0
 11
823.042610
 21
-259.1
 31
0.0
  0
LINE
  8
7
 10
823.042610
 20
-259.1
 30
0.0
 11
823.646356
 21
-259.7
 31
0.0
  0
LINE
  8
7
 10
847.134208
 20
-219.7
 30
0.0
 11
814.134208
 21
-219.7
 31
0.0
  0
LINE
  8
7
 10
848.634208
 20
-210.7
 30
0.0
 11
808.634208
 21
-210.7
 31
0.0
  0
LINE
  8
7
 10
851.701810
 20
-259.7
 30
0.0
 11
844.943557
 21
-259.7
 31
0.0
  0
LINE
  8
7
 10
844.958200
 20
-250.9
 30
0.0
 11
851.707015
 21
-250.9
 31
0.0
  0
POINT
  8
7
 10
853.131607
 20
-255.3
 30
0.0
  0
POINT
  8
7
 10
847.634208
 20
-264.2
 30
0.0
  0
ARC
  8
7
 10
799.834208
 20
-198.7
 30
0.0
 40
14.0
 50
343.927160
 51
376.072820
  0
POINT
  8
7
 10
807.634208
 20
-198.7
 30
0.0
  0
LINE
  8
7
 10
807.634208
 20
-204.4
 30
0.0
 11
807.634208
 21
-192.9
 31
0.0
  0
LINE
  8
7
 10
808.434208
 20
-204.4
 30
0.0
 11
808.434208
 21
-192.9
 31
0.0
  0
LINE
  8
7
 10
808.434208
 20
-204.4
 30
0.0
 11
807.634208
 21
-204.4
 31
0.0
  0
LINE
  8
7
 10
808.434208
 20
-192.9
 30
0.0
 11
807.634208
 21
-192.9
 31
0.0
  0
LINE
  8
7
 10
809.934208
 20
-203.7
 30
0.0
 11
808.434208
 21
-203.7
 31
0.0
  0
LINE
  8
7
 10
808.434208
 20
-193.6
 30
0.0
 11
809.934208
 21
-193.6
 31
0.0
  0
LINE
  8
7
 10
809.934208
 20
-203.9
 30
0.0
 11
809.934208
 21
-193.4
 31
0.0
  0
LINE
  8
7
 10
811.461224
 20
-203.9
 30
0.0
 11
809.934208
 21
-203.9
 31
0.0
  0
LINE
  8
7
 10
811.461224
 20
-193.4
 30
0.0
 11
809.934208
 21
-193.4
 31
0.0
  0
ARC
  8
7
 10
811.461224
 20
-202.0
 30
0.0
 40
1.900000
 50
270.0
 51
343.927110
  0
ARC
  8
7
 10
811.461224
 20
-195.3
 30
0.0
 40
1.900000
 50
16.072820
 51
90.0
  0
LINE
  8
7
 10
809.934207
 20
-198.7
 30
0.0
 11
808.434208
 21
-199.5
 31
0.0
  0
LINE
  8
7
 10
809.934207
 20
-197.8
 30
0.0
 11
808.434208
 21
-198.7
 31
0.0
  0
LINE
  8
7
 10
807.634208
 20
-209.7
 30
0.0
 11
807.634208
 21
-183.7
 31
0.0
  0
LINE
  8
7
 10
805.134208
 20
-209.7
 30
0.0
 11
805.134208
 21
-183.7
 31
0.0
  0
POINT
  8
7
 10
848.634208
 20
-210.7
 30
0.0
  0
LINE
  8
7
 10
790.634208
 20
-183.7
 30
0.0
 11
793.134208
 21
-183.7
 31
0.0
  0
ARC
  8
7
 10
789.634208
 20
-209.7
 30
0.0
 40
1.000000
 50
270.000000
 51
360.000000
  0
ARC
  8
7
 10
789.634208
 20
-209.7
 30
0.0
 40
3.500000
 50
270.000000
 51
360.000000
  0
LINE
  8
7
 10
785.634208
 20
-218.2
 30
0.0
 11
785.634208
 21
-210.7
 31
0.0
  0
LINE
  8
7
 10
785.634208
 20
-213.2
 30
0.0
 11
789.634208
 21
-213.2
 31
0.0
  0
ARC
  8
7
 10
784.134208
 20
-218.2
 30
0.0
 40
1.500000
 50
270.000000
 51
360.000000
  0
LINE
  8
7
 62
     4
  6
DASHED
 10
785.134208
 20
-264.2
 30
0.0
 11
785.134208
 21
-219.3
 31
0.0
  0
POINT
  8
7
 10
758.134208
 20
-210.7
 30
0.0
  0
LINE
  8
7
 10
762.634208
 20
-208.6
 30
0.0
 11
753.634208
 21
-208.6
 31
0.0
  0
LINE
  8
7
 10
753.634208
 20
-208.6
 30
0.0
 11
753.634208
 21
-207.3
 31
0.0
  0
LINE
  8
7
 10
762.634208
 20
-208.6
 30
0.0
 11
762.634208
 21
-207.3
 31
0.0
  0
LINE
  8
7
 10
753.959210
 20
-209.9
 30
0.0
 11
753.959210
 21
-208.6
 31
0.0
  0
LINE
  8
7
 10
762.309206
 20
-209.9
 30
0.0
 11
762.309206
 21
-208.6
 31
0.0
  0
POINT
  8
7
 10
758.134208
 20
-210.7
 30
0.0
  0
LINE
  8
7
 10
758.134208
 20
-210.7
 30
0.0
 11
753.134208
 21
-210.7
 31
0.0
  0
LINE
  8
7
 10
753.134208
 20
-209.9
 30
0.0
 11
763.134208
 21
-209.9
 31
0.0
  0
LINE
  8
7
 10
763.134208
 20
-210.7
 30
0.0
 11
758.134208
 21
-210.7
 31
0.0
  0
LINE
  8
7
 10
753.134208
 20
-209.9
 30
0.0
 11
753.134208
 21
-210.7
 31
0.0
  0
LINE
  8
7
 10
763.134208
 20
-210.7
 30
0.0
 11
763.134208
 21
-209.9
 31
0.0
  0
LINE
  8
7
 10
758.134208
 20
-208.6
 30
0.0
 11
757.383655
 21
-209.9
 31
0.0
  0
LINE
  8
7
 10
758.884761
 20
-208.6
 30
0.0
 11
758.134208
 21
-209.9
 31
0.0
  0
LINE
  8
7
 10
750.134208
 20
-218.2
 30
0.0
 11
750.134208
 21
-210.7
 31
0.0
  0
ARC
  8
7
 10
751.634208
 20
-218.2
 30
0.0
 40
1.500000
 50
180.000000
 51
270.000000
  0
LINE
  8
7
 10
753.534208
 20
-265.2
 30
0.0
 11
762.734208
 21
-265.2
 31
0.0
  0
LINE
  8
7
 10
762.734207
 20
-265.2
 30
0.0
 11
762.734207
 21
-268.8
 31
0.0
  0
LINE
  8
7
 10
762.734202
 20
-268.8
 30
0.0
 11
762.034203
 21
-269.2
 31
0.0
  0
LINE
  8
7
 10
762.034207
 20
-269.2
 30
0.0
 11
754.234209
 21
-269.2
 31
0.0
  0
LINE
  8
7
 10
754.234213
 20
-269.2
 30
0.0
 11
753.534214
 21
-268.8
 31
0.0
  0
LINE
  8
7
 10
753.534209
 20
-268.8
 30
0.0
 11
753.534209
 21
-265.2
 31
0.0
  0
LINE
  8
7
 10
755.834208
 20
-268.8
 30
0.0
 11
755.834208
 21
-265.2
 31
0.0
  0
LINE
  8
7
 10
760.434208
 20
-268.8
 30
0.0
 11
760.434208
 21
-265.2
 31
0.0
  0
LINE
  8
7
 10
753.534208
 20
-265.2
 30
0.0
 11
753.134208
 21
-265.2
 31
0.0
  0
LINE
  8
7
 10
753.134208
 20
-265.2
 30
0.0
 11
753.134208
 21
-264.2
 31
0.0
  0
LINE
  8
7
 10
753.134208
 20
-264.2
 30
0.0
 11
763.134208
 21
-264.2
 31
0.0
  0
LINE
  8
7
 10
763.134208
 20
-264.2
 30
0.0
 11
763.134208
 21
-265.2
 31
0.0
  0
LINE
  8
7
 10
763.134208
 20
-265.2
 30
0.0
 11
762.734208
 21
-265.2
 31
0.0
  0
POINT
  8
7
 10
758.134208
 20
-264.2
 30
0.0
  0
LINE
  8
7
 10
762.634208
 20
-254.3
 30
0.0
 11
762.634208
 21
-264.2
 31
0.0
  0
ARC
  8
7
 10
752.634208
 20
-262.2
 30
0.0
 40
2.000000
 50
180.000000
 51
270.000000
  0
LINE
  8
7
 10
750.634208
 20
-254.3
 30
0.0
 11
750.634208
 21
-262.2
 31
0.0
  0
LINE
  8
7
 10
750.634208
 20
-254.3
 30
0.0
 11
762.634208
 21
-254.3
 31
0.0
  0
LINE
  8
7
 10
752.634208
 20
-264.2
 30
0.0
 11
849.528395
 21
-264.2
 31
0.0
  0
LINE
  8
7
 10
750.634208
 20
-254.3
 30
0.0
 11
750.634208
 21
-219.3
 31
0.0
  0
LINE
  8
7
 10
751.634208
 20
-219.7
 30
0.0
 11
784.134208
 21
-219.7
 31
0.0
  0
LINE
  8
7
 10
750.134208
 20
-210.7
 30
0.0
 11
789.634208
 21
-210.7
 31
0.0
  0
POINT
  8
7
 10
755.634201
 20
-270.7
 30
0.0
  0
POINT
  8
7
 10
752.634201
 20
-264.2
 30
0.0
  0
LINE
  8
7
 10
787.534208
 20
-192.9
 30
0.0
 11
787.534208
 21
-204.4
 31
0.0
  0
LINE
  8
7
 10
787.534208
 20
-204.4
 30
0.0
 11
783.034208
 21
-204.4
 31
0.0
  0
LINE
  8
7
 10
783.034199
 20
-204.4
 30
0.0
 11
782.534199
 21
-203.6
 31
0.0
  0
LINE
  8
7
 10
782.534211
 20
-203.6
 30
0.0
 11
782.534211
 21
-193.8
 31
0.0
  0
LINE
  8
7
 10
782.534199
 20
-193.8
 30
0.0
 11
783.034199
 21
-192.9
 31
0.0
  0
LINE
  8
7
 10
783.034208
 20
-192.9
 30
0.0
 11
787.534208
 21
-192.9
 31
0.0
  0
LINE
  8
7
 10
787.534208
 20
-195.8
 30
0.0
 11
783.034208
 21
-195.8
 31
0.0
  0
LINE
  8
7
 10
787.534208
 20
-192.9
 30
0.0
 11
787.534208
 21
-192.6
 31
0.0
  0
LINE
  8
7
 10
787.534208
 20
-192.6
 30
0.0
 11
789.034208
 21
-192.6
 31
0.0
  0
LINE
  8
7
 10
789.034206
 20
-192.6
 30
0.0
 11
789.034206
 21
-204.8
 31
0.0
  0
LINE
  8
7
 10
789.034208
 20
-204.8
 30
0.0
 11
787.534208
 21
-204.8
 31
0.0
  0
LINE
  8
7
 10
787.534208
 20
-204.8
 30
0.0
 11
787.534208
 21
-204.4
 31
0.0
  0
LINE
  8
7
 10
789.034207
 20
-198.7
 30
0.0
 11
787.534209
 21
-198.2
 31
0.0
  0
LINE
  8
7
 10
789.034209
 20
-199.2
 30
0.0
 11
787.534208
 21
-198.7
 31
0.0
  0
LINE
  8
7
 10
789.034208
 20
-192.9
 30
0.0
 11
790.634208
 21
-192.9
 31
0.0
  0
LINE
  8
7
 10
790.634208
 20
-192.9
 30
0.0
 11
790.634208
 21
-204.4
 31
0.0
  0
LINE
  8
7
 10
790.634208
 20
-204.4
 30
0.0
 11
789.034208
 21
-204.4
 31
0.0
  0
LINE
  8
7
 10
789.034208
 20
-204.4
 30
0.0
 11
789.034208
 21
-204.8
 31
0.0
  0
LINE
  8
7
 10
787.534208
 20
-201.5
 30
0.0
 11
783.034208
 21
-201.5
 31
0.0
  0
POINT
  8
7
 10
790.634208
 20
-198.7
 30
0.0
  0
LINE
  8
7
 10
793.134208
 20
-209.7
 30
0.0
 11
793.134208
 21
-183.7
 31
0.0
  0
LINE
  8
7
 10
790.634208
 20
-209.7
 30
0.0
 11
790.634208
 21
-183.7
 31
0.0
  0
POINT
  8
7
 10
752.634201
 20
-264.2
 30
0.0
  0
POINT
  8
7
 10
790.634207
 20
-183.7
 30
0.0
  0
LINE
  8
7
 10
785.634208
 20
-213.6
 30
0.0
 11
812.634208
 21
-213.6
 31
0.0
  0
LINE
  8
7
 10
793.134208
 20
-201.7
 30
0.0
 11
805.134208
 21
-201.7
 31
0.0
  0
LINE
  8
7
 10
793.134208
 20
-195.7
 30
0.0
 11
805.134208
 21
-195.7
 31
0.0
  0
POINT
  8
7
 10
750.634200
 20
-262.2
 30
0.0
  0
POINT
  8
7
 10
847.634208
 20
-264.2
 30
0.0
  0
LINE
  8
7
 10
935.132352
 20
-260.8
 30
0.0
 11
929.770732
 21
-260.8
 31
0.0
  0
LINE
  8
7
 10
933.252962
 20
-260.8
 30
0.0
 11
933.252962
 21
-250.8
 31
0.0
  0
LINE
  8
7
 10
954.502092
 20
-244.3
 30
0.0
 11
929.770732
 21
-244.3
 31
0.0
  0
LINE
  8
7
 10
935.132352
 20
-250.8
 30
0.0
 11
929.770732
 21
-250.8
 31
0.0
  0
POINT
  8
7
 10
934.810679
 20
-214.2
 30
0.0
  0
POINT
  8
7
 10
924.813283
 20
-255.3
 30
0.0
  0
ARC
  8
7
 10
1060.360683
 20
-267.3
 30
0.0
 40
1.853133
 50
270.0
 51
308.357670
  0
ARC
  8
7
 10
1063.810682
 20
-262.3
 30
0.0
 40
6.812498
 50
250.268330
 51
289.731580
  0
ARC
  8
7
 10
1067.260681
 20
-267.3
 30
0.0
 40
1.853135
 50
231.642265
 51
270.0
  0
ARC
  8
7
 10
784.850626
 20
-194.3
 30
0.0
 40
2.316419
 50
180.000000
 51
218.357735
  0
ARC
  8
7
 10
791.049828
 20
-198.7
 30
0.0
 40
8.515623
 50
160.268420
 51
199.731670
  0
ARC
  8
7
 10
784.850623
 20
-203.0
 30
0.0
 40
2.316416
 50
141.642330
 51
180.0
  0
ARC
  8
7
 10
758.134208
 20
-262.3
 30
0.0
 40
6.812498
 50
250.268330
 51
289.731580
  0
ARC
  8
7
 10
754.684209
 20
-267.3
 30
0.0
 40
1.853133
 50
270.0
 51
308.357670
  0
ARC
  8
7
 10
761.584207
 20
-267.3
 30
0.0
 40
1.853135
 50
231.642265
 51
270.0
  0
CIRCLE
  8
7
 10
950.310682
 20
-198.7
 30
0.0
 40
5.249999
  0
CIRCLE
  8
7
 10
950.310682
 20
-198.7
 30
0.0
 40
5.249999
  0
CIRCLE
  8
7
 10
950.310682
 20
-198.7
 30
0.0
 40
5.749999
  0
LINE
  8
4
 10
950.910682
 20
-200.0
 30
0.0
 11
950.910682
 21
-201.7
 31
0.0
  0
ARC
  8
4
 10
951.660682
 20
-200.0
 30
0.0
 40
0.750000
 50
90.0
 51
180.0
  0
LINE
  8
4
 10
953.310682
 20
-199.3
 30
0.0
 11
951.660682
 21
-199.3
 31
0.0
  0
LINE
  8
4
 10
953.310682
 20
-198.1
 30
0.0
 11
953.310682
 21
-199.3
 31
0.0
  0
LINE
  8
4
 10
953.310682
 20
-198.1
 30
0.0
 11
951.660682
 21
-198.1
 31
0.0
  0
ARC
  8
4
 10
951.660682
 20
-197.3
 30
0.0
 40
0.750000
 50
180.0
 51
270.0
  0
LINE
  8
4
 10
950.910682
 20
-197.3
 30
0.0
 11
950.910682
 21
-195.7
 31
0.0
  0
LINE
  8
4
 10
950.910682
 20
-195.7
 30
0.0
 11
949.710682
 21
-195.7
 31
0.0
  0
LINE
  8
4
 10
949.710682
 20
-197.3
 30
0.0
 11
949.710682
 21
-195.7
 31
0.0
  0
ARC
  8
4
 10
948.960682
 20
-197.3
 30
0.0
 40
0.750000
 50
270.0
 51
360.0
  0
LINE
  8
4
 10
948.960682
 20
-198.1
 30
0.0
 11
947.310682
 21
-198.1
 31
0.0
  0
LINE
  8
4
 10
947.310682
 20
-198.1
 30
0.0
 11
947.310682
 21
-199.3
 31
0.0
  0
LINE
  8
4
 10
948.960682
 20
-199.3
 30
0.0
 11
947.310682
 21
-199.3
 31
0.0
  0
ARC
  8
4
 10
948.960682
 20
-200.0
 30
0.0
 40
0.750000
 50
0.0
 51
90.0
  0
LINE
  8
4
 10
949.710682
 20
-200.0
 30
0.0
 11
949.710682
 21
-201.7
 31
0.0
  0
LINE
  8
4
 10
950.910682
 20
-201.7
 30
0.0
 11
949.710682
 21
-201.7
 31
0.0
  0
LINE
  8
4
 10
1061.310682
 20
-198.1
 30
0.0
 11
1061.310682
 21
-199.3
 31
0.0
  0
LINE
  8
4
 10
1061.310682
 20
-199.3
 30
0.0
 11
1059.660682
 21
-199.3
 31
0.0
  0
ARC
  8
4
 10
1059.660682
 20
-200.0
 30
0.0
 40
0.750000
 50
90.0
 51
180.0
  0
LINE
  8
4
 10
1058.910682
 20
-200.0
 30
0.0
 11
1058.910682
 21
-201.7
 31
0.0
  0
LINE
  8
4
 10
1058.910682
 20
-201.7
 30
0.0
 11
1057.710682
 21
-201.7
 31
0.0
  0
LINE
  8
4
 10
1057.710682
 20
-200.0
 30
0.0
 11
1057.710682
 21
-201.7
 31
0.0
  0
ARC
  8
4
 10
1056.960682
 20
-200.0
 30
0.0
 40
0.750000
 50
0.0
 51
90.0
  0
LINE
  8
4
 10
1056.960682
 20
-199.3
 30
0.0
 11
1055.310682
 21
-199.3
 31
0.0
  0
LINE
  8
4
 10
1055.310682
 20
-198.1
 30
0.0
 11
1055.310682
 21
-199.3
 31
0.0
  0
LINE
  8
4
 10
1056.960682
 20
-198.1
 30
0.0
 11
1055.310682
 21
-198.1
 31
0.0
  0
ARC
  8
4
 10
1056.960682
 20
-197.3
 30
0.0
 40
0.750000
 50
270.0
 51
360.0
  0
LINE
  8
4
 10
1057.710682
 20
-197.3
 30
0.0
 11
1057.710682
 21
-195.7
 31
0.0
  0
LINE
  8
4
 10
1058.910682
 20
-195.7
 30
0.0
 11
1057.710682
 21
-195.7
 31
0.0
  0
LINE
  8
4
 10
1058.910682
 20
-197.3
 30
0.0
 11
1058.910682
 21
-195.7
 31
0.0
  0
ARC
  8
4
 10
1059.660682
 20
-197.3
 30
0.0
 40
0.750000
 50
180.0
 51
270.0
  0
LINE
  8
4
 10
1061.310682
 20
-198.1
 30
0.0
 11
1059.660682
 21
-198.1
 31
0.0
  0
POLYLINE
  8
0
 66
     1
 70
     0
  0
VERTEX
  8
0
 10
793.134208
 20
-170.3
 30
0.0
  0
VERTEX
  8
0
 10
793.338362
 20
-170.2
 30
0.0
  0
VERTEX
  8
0
 10
793.546166
 20
-170.0
 30
0.0
  0
VERTEX
  8
0
 10
793.761271
 20
-169.9
 30
0.0
  0
VERTEX
  8
0
 10
793.987327
 20
-169.7
 30
0.0
  0
VERTEX
  8
0
 10
794.227984
 20
-169.6
 30
0.0
  0
VERTEX
  8
0
 10
794.486892
 20
-169.5
 30
0.0
  0
VERTEX
  8
0
 10
794.767702
 20
-169.4
 30
0.0
  0
VERTEX
  8
0
 10
795.074065
 20
-169.3
 30
0.0
  0
VERTEX
  8
0
 10
795.409630
 20
-169.3
 30
0.0
  0
VERTEX
  8
0
 10
795.778048
 20
-169.3
 30
0.0
  0
VERTEX
  8
0
 10
796.182969
 20
-169.3
 30
0.0
  0
VERTEX
  8
0
 10
796.626271
 20
-169.3
 30
0.0
  0
VERTEX
  8
0
 10
797.102745
 20
-169.4
 30
0.0
  0
VERTEX
  8
0
 10
797.605408
 20
-169.5
 30
0.0
  0
VERTEX
  8
0
 10
798.127280
 20
-169.6
 30
0.0
  0
VERTEX
  8
0
 10
798.661379
 20
-169.7
 30
0.0
  0
VERTEX
  8
0
 10
799.200722
 20
-169.8
 30
0.0
  0
VERTEX
  8
0
 10
799.738328
 20
-169.9
 30
0.0
  0
VERTEX
  8
0
 10
800.267215
 20
-170.1
 30
0.0
  0
VERTEX
  8
0
 10
800.780402
 20
-170.2
 30
0.0
  0
VERTEX
  8
0
 10
801.270907
 20
-170.3
 30
0.0
  0
VERTEX
  8
0
 10
801.731748
 20
-170.4
 30
0.0
  0
VERTEX
  8
0
 10
802.157662
 20
-170.4
 30
0.0
  0
VERTEX
  8
0
 10
802.550262
 20
-170.5
 30
0.0
  0
VERTEX
  8
0
 10
802.912880
 20
-170.5
 30
0.0
  0
VERTEX
  8
0
 10
803.248846
 20
-170.5
 30
0.0
  0
VERTEX
  8
0
 10
803.561492
 20
-170.5
 30
0.0
  0
VERTEX
  8
0
 10
803.854149
 20
-170.5
 30
0.0
  0
VERTEX
  8
0
 10
804.130149
 20
-170.5
 30
0.0
  0
VERTEX
  8
0
 10
804.392824
 20
-170.4
 30
0.0
  0
VERTEX
  8
0
 10
804.645504
 20
-170.4
 30
0.0
  0
VERTEX
  8
0
 10
804.891522
 20
-170.4
 30
0.0
  0
VERTEX
  8
0
 10
805.134208
 20
-170.3
 30
0.0
  0
SEQEND
  8
0
  0
POLYLINE
  8
0
 66
     1
 70
     0
  0
VERTEX
  8
0
 10
954.310682
 20
-174.1
 30
0.0
  0
VERTEX
  8
0
 10
954.827319
 20
-173.6
 30
0.0
  0
VERTEX
  8
0
 10
955.399070
 20
-173.0
 30
0.0
  0
VERTEX
  8
0
 10
956.081046
 20
-172.5
 30
0.0
  0
VERTEX
  8
0
 10
956.928363
 20
-172.0
 30
0.0
  0
VERTEX
  8
0
 10
957.996132
 20
-171.6
 30
0.0
  0
VERTEX
  8
0
 10
959.339467
 20
-171.3
 30
0.0
  0
VERTEX
  8
0
 10
961.013481
 20
-171.0
 30
0.0
  0
VERTEX
  8
0
 10
963.073287
 20
-170.7
 30
0.0
  0
VERTEX
  8
0
 10
965.573998
 20
-170.6
 30
0.0
  0
VERTEX
  8
0
 10
968.570728
 20
-170.6
 30
0.0
  0
VERTEX
  8
0
 10
972.118590
 20
-170.7
 30
0.0
  0
VERTEX
  8
0
 10
976.246380
 20
-171.0
 30
0.0
  0
VERTEX
  8
0
 10
980.877625
 20
-171.3
 30
0.0
  0
VERTEX
  8
0
 10
985.909536
 20
-171.8
 30
0.0
  0
VERTEX
  8
0
 10
991.239324
 20
-172.3
 30
0.0
  0
VERTEX
  8
0
 10
996.764198
 20
-172.8
 30
0.0
  0
VERTEX
  8
0
 10
1002.381370
 20
-173.4
 30
0.0
  0
VERTEX
  8
0
 10
1007.988050
 20
-173.9
 30
0.0
  0
VERTEX
  8
0
 10
1013.481448
 20
-174.5
 30
0.0
  0
VERTEX
  8
0
 10
1018.758776
 20
-174.9
 30
0.0
  0
VERTEX
  8
0
 10
1023.717243
 20
-175.4
 30
0.0
  0
VERTEX
  8
0
 10
1028.254059
 20
-175.7
 30
0.0
  0
VERTEX
  8
0
 10
1032.291514
 20
-175.9
 30
0.0
  0
VERTEX
  8
0
 10
1035.852206
 20
-176.0
 30
0.0
  0
VERTEX
  8
0
 10
1038.983811
 20
-176.0
 30
0.0
  0
VERTEX
  8
0
 10
1041.734006
 20
-176.0
 30
0.0
  0
VERTEX
  8
0
 10
1044.150466
 20
-175.8
 30
0.0
  0
VERTEX
  8
0
 10
1046.280868
 20
-175.6
 30
0.0
  0
VERTEX
  8
0
 10
1048.172889
 20
-175.4
 30
0.0
  0
VERTEX
  8
0
 10
1049.874204
 20
-175.1
 30
0.0
  0
VERTEX
  8
0
 10
1051.432491
 20
-174.8
 30
0.0
  0
VERTEX
  8
0
 10
1052.895424
 20
-174.4
 30
0.0
  0
VERTEX
  8
0
 10
1054.310682
 20
-174.1
 30
0.0
  0
SEQEND
  8
0
  0
POLYLINE
  8
0
 66
     1
 70
     0
  0
VERTEX
  8
0
 10
954.310682
 20
-277.1
 30
0.0
  0
VERTEX
  8
0
 10
954.827319
 20
-276.5
 30
0.0
  0
VERTEX
  8
0
 10
955.399070
 20
-276.0
 30
0.0
  0
VERTEX
  8
0
 10
956.081046
 20
-275.5
 30
0.0
  0
VERTEX
  8
0
 10
956.928363
 20
-275.0
 30
0.0
  0
VERTEX
  8
0
 10
957.996132
 20
-274.6
 30
0.0
  0
VERTEX
  8
0
 10
959.339467
 20
-274.2
 30
0.0
  0
VERTEX
  8
0
 10
961.013481
 20
-273.9
 30
0.0
  0
VERTEX
  8
0
 10
963.073287
 20
-273.7
 30
0.0
  0
VERTEX
  8
0
 10
965.573998
 20
-273.6
 30
0.0
  0
VERTEX
  8
0
 10
968.570728
 20
-273.6
 30
0.0
  0
VERTEX
  8
0
 10
972.118590
 20
-273.7
 30
0.0
  0
VERTEX
  8
0
 10
976.246380
 20
-273.9
 30
0.0
  0
VERTEX
  8
0
 10
980.877625
 20
-274.3
 30
0.0
  0
VERTEX
  8
0
 10
985.909536
 20
-274.7
 30
0.0
  0
VERTEX
  8
0
 10
991.239324
 20
-275.2
 30
0.0
  0
VERTEX
  8
0
 10
996.764198
 20
-275.8
 30
0.0
  0
VERTEX
  8
0
 10
1002.381370
 20
-276.3
 30
0.0
  0
VERTEX
  8
0
 10
1007.988050
 20
-276.9
 30
0.0
  0
VERTEX
  8
0
 10
1013.481448
 20
-277.4
 30
0.0
  0
VERTEX
  8
0
 10
1018.758776
 20
-277.9
 30
0.0
  0
VERTEX
  8
0
 10
1023.717243
 20
-278.3
 30
0.0
  0
VERTEX
  8
0
 10
1028.254059
 20
-278.6
 30
0.0
  0
VERTEX
  8
0
 10
1032.291514
 20
-278.9
 30
0.0
  0
VERTEX
  8
0
 10
1035.852206
 20
-279.0
 30
0.0
  0
VERTEX
  8
0
 10
1038.983811
 20
-279.0
 30
0.0
  0
VERTEX
  8
0
 10
1041.734006
 20
-278.9
 30
0.0
  0
VERTEX
  8
0
 10
1044.150466
 20
-278.8
 30
0.0
  0
VERTEX
  8
0
 10
1046.280868
 20
-278.6
 30
0.0
  0
VERTEX
  8
0
 10
1048.172889
 20
-278.4
 30
0.0
  0
VERTEX
  8
0
 10
1049.874204
 20
-278.1
 30
0.0
  0
VERTEX
  8
0
 10
1051.432491
 20
-277.8
 30
0.0
  0
VERTEX
  8
0
 10
1052.895424
 20
-277.4
 30
0.0
  0
VERTEX
  8
0
 10
1054.310682
 20
-277.1
 30
0.0
  0
SEQEND
  8
0
  0
POLYLINE
  8
0
 66
     1
 70
     0
  0
VERTEX
  8
0
 10
793.134208
 20
-281.2
 30
0.0
  0
VERTEX
  8
0
 10
793.338362
 20
-281.1
 30
0.0
  0
VERTEX
  8
0
 10
793.546166
 20
-280.9
 30
0.0
  0
VERTEX
  8
0
 10
793.761271
 20
-280.8
 30
0.0
  0
VERTEX
  8
0
 10
793.987327
 20
-280.6
 30
0.0
  0
VERTEX
  8
0
 10
794.227984
 20
-280.5
 30
0.0
  0
VERTEX
  8
0
 10
794.486892
 20
-280.4
 30
0.0
  0
VERTEX
  8
0
 10
794.767702
 20
-280.3
 30
0.0
  0
VERTEX
  8
0
 10
795.074065
 20
-280.3
 30
0.0
  0
VERTEX
  8
0
 10
795.409630
 20
-280.2
 30
0.0
  0
VERTEX
  8
0
 10
795.778048
 20
-280.2
 30
0.0
  0
VERTEX
  8
0
 10
796.182969
 20
-280.2
 30
0.0
  0
VERTEX
  8
0
 10
796.626271
 20
-280.2
 30
0.0
  0
VERTEX
  8
0
 10
797.102745
 20
-280.3
 30
0.0
  0
VERTEX
  8
0
 10
797.605408
 20
-280.4
 30
0.0
  0
VERTEX
  8
0
 10
798.127280
 20
-280.5
 30
0.0
  0
VERTEX
  8
0
 10
798.661379
 20
-280.6
 30
0.0
  0
VERTEX
  8
0
 10
799.200722
 20
-280.7
 30
0.0
  0
VERTEX
  8
0
 10
799.738328
 20
-280.9
 30
0.0
  0
VERTEX
  8
0
 10
800.267215
 20
-281.0
 30
0.0
  0
VERTEX
  8
0
 10
800.780402
 20
-281.1
 30
0.0
  0
VERTEX
  8
0
 10
801.270907
 20
-281.2
 30
0.0
  0
VERTEX
  8
0
 10
801.731748
 20
-281.3
 30
0.0
  0
VERTEX
  8
0
 10
802.157662
 20
-281.4
 30
0.0
  0
VERTEX
  8
0
 10
802.550262
 20
-281.4
 30
0.0
  0
VERTEX
  8
0
 10
802.912880
 20
-281.4
 30
0.0
  0
VERTEX
  8
0
 10
803.248846
 20
-281.4
 30
0.0
  0
VERTEX
  8
0
 10
803.561492
 20
-281.4
 30
0.0
  0
VERTEX
  8
0
 10
803.854149
 20
-281.4
 30
0.0
  0
VERTEX
  8
0
 10
804.130149
 20
-281.4
 30
0.0
  0
VERTEX
  8
0
 10
804.392824
 20
-281.4
 30
0.0
  0
VERTEX
  8
0
 10
804.645504
 20
-281.3
 30
0.0
  0
VERTEX
  8
0
 10
804.891522
 20
-281.3
 30
0.0
  0
VERTEX
  8
0
 10
805.134208
 20
-281.2
 30
0.0
  0
SEQEND
  8
0
  0
ARC
  8
7
 10
758.134208
 20
-217.3
 30
0.0
 40
12.0
 50
73.808650
 51
106.191340
  0
ARC
  8
7
 10
761.034209
 20
-207.3
 30
0.0
 40
1.599999
 50
0.0
 51
73.808590
  0
ARC
  8
7
 10
755.234207
 20
-207.3
 30
0.0
 40
1.599999
 50
106.191280
 51
180.0
  0
LINE
  8
0
 10
805.134208
 20
-168.3
 30
0.0
 11
805.134208
 21
-147.6
 31
0.0
  0
LINE
  8
0
 10
793.134208
 20
-168.3
 30
0.0
 11
793.134208
 21
-147.6
 31
0.0
  0
LINE
  8
0
 10
799.134208
 20
-149.6
 30
0.0
 11
805.134208
 21
-149.6
 31
0.0
  0
LINE
  8
0
 10
805.134208
 20
-149.6
 30
0.0
 11
811.134208
 21
-149.6
 31
0.0
  0
LINE
  8
0
 10
807.134208
 20
-149.1
 30
0.0
 11
805.134208
 21
-149.6
 31
0.0
  0
LINE
  8
0
 10
805.134208
 20
-149.6
 30
0.0
 11
807.134208
 21
-150.2
 31
0.0
  0
LINE
  8
0
 10
799.134208
 20
-149.6
 30
0.0
 11
793.134208
 21
-149.6
 31
0.0
  0
LINE
  8
0
 10
793.134208
 20
-149.6
 30
0.0
 11
771.814208
 21
-149.6
 31
0.0
  0
LINE
  8
0
 10
791.134208
 20
-150.2
 30
0.0
 11
793.134208
 21
-149.6
 31
0.0
  0
LINE
  8
0
 10
793.134208
 20
-149.6
 30
0.0
 11
791.134208
 21
-149.1
 31
0.0
  0
TEXT
  8
0
 10
771.814208
 20
-149.6
 30
0.0
 40
5.0
  7
CSTEXT
  1
6～
 41
0.800000
 72
     5
 11
779.134208
 21
-149.6
 31
0.0
  0
TEXT
  8
0
 10
779.134208
 20
-149.6
 30
0.0
 40
5.0
  7
CSTEXT
  1
１２
 41
0.800000
 72
     5
 11
787.134208
 21
-149.6
 31
0.0
  0
LINE
  8
0
 10
805.134208
 20
-168.3
 30
0.0
 11
805.134208
 21
-147.6
 31
0.0
  0
LINE
  8
0
 10
848.634208
 20
-208.7
 30
0.0
 11
848.634208
 21
-147.6
 31
0.0
  0
LINE
  8
0
 10
826.884208
 20
-149.6
 30
0.0
 11
805.134208
 21
-149.6
 31
0.0
  0
LINE
  8
0
 10
807.134208
 20
-150.2
 30
0.0
 11
805.134208
 21
-149.6
 31
0.0
  0
LINE
  8
0
 10
805.134208
 20
-149.6
 30
0.0
 11
807.134208
 21
-149.1
 31
0.0
  0
LINE
  8
0
 10
826.884208
 20
-149.6
 30
0.0
 11
848.634208
 21
-149.6
 31
0.0
  0
LINE
  8
0
 10
846.634208
 20
-149.1
 30
0.0
 11
848.634208
 21
-149.6
 31
0.0
  0
LINE
  8
0
 10
848.634208
 20
-149.6
 30
0.0
 11
846.634208
 21
-150.2
 31
0.0
  0
TEXT
  8
0
 10
818.884208
 20
-149.6
 30
0.0
 40
5.0
  7
CSTEXT
  1
４３．５
 41
0.800000
 72
     5
 11
834.884208
 21
-149.6
 31
0.0
  0
LINE
  8
0
 10
750.634208
 20
-264.2
 30
0.0
 11
750.634208
 21
-296.9
 31
0.0
  0
LINE
  8
0
 10
847.634208
 20
-246.3
 30
0.0
 11
847.634208
 21
-296.9
 31
0.0
  0
LINE
  8
0
 10
799.134208
 20
-294.9
 30
0.0
 11
750.634208
 21
-294.9
 31
0.0
  0
LINE
  8
0
 10
752.634208
 20
-295.5
 30
0.0
 11
750.634208
 21
-294.9
 31
0.0
  0
LINE
  8
0
 10
750.634208
 20
-294.9
 30
0.0
 11
752.634208
 21
-294.4
 31
0.0
  0
LINE
  8
0
 10
799.134208
 20
-294.9
 30
0.0
 11
847.634208
 21
-294.9
 31
0.0
  0
LINE
  8
0
 10
845.634208
 20
-294.4
 30
0.0
 11
847.634208
 21
-294.9
 31
0.0
  0
LINE
  8
0
 10
847.634208
 20
-294.9
 30
0.0
 11
845.634208
 21
-295.5
 31
0.0
  0
TEXT
  8
0
 10
795.134208
 20
-294.9
 30
0.0
 40
5.0
  7
CSTEXT
  1
９７
 41
0.800000
 72
     5
 11
803.134208
 21
-294.9
 31
0.0
  0
LINE
  8
0
 10
847.634208
 20
-246.3
 30
0.0
 11
847.634208
 21
-296.9
 31
0.0
  0
LINE
  8
0
 10
853.131606
 20
-257.3
 30
0.0
 11
853.131606
 21
-296.9
 31
0.0
  0
LINE
  8
0
 10
850.382907
 20
-294.9
 30
0.0
 11
847.634208
 21
-294.9
 31
0.0
  0
LINE
  8
0
 10
847.634208
 20
-294.9
 30
0.0
 11
841.634208
 21
-294.9
 31
0.0
  0
LINE
  8
0
 10
845.634208
 20
-295.5
 30
0.0
 11
847.634208
 21
-294.9
 31
0.0
  0
LINE
  8
0
 10
847.634208
 20
-294.9
 30
0.0
 11
845.634208
 21
-294.4
 31
0.0
  0
LINE
  8
0
 10
850.382907
 20
-294.9
 30
0.0
 11
853.131606
 21
-294.9
 31
0.0
  0
LINE
  8
0
 10
853.131606
 20
-294.9
 30
0.0
 11
871.131606
 21
-294.9
 31
0.0
  0
LINE
  8
0
 10
855.131606
 20
-294.4
 30
0.0
 11
853.131606
 21
-294.9
 31
0.0
  0
LINE
  8
0
 10
853.131606
 20
-294.9
 30
0.0
 11
855.131606
 21
-295.5
 31
0.0
  0
TEXT
  8
0
 10
859.131606
 20
-294.9
 30
0.0
 40
5.0
  7
CSTEXT
  1
５．５
 41
0.800000
 72
     5
 11
871.131606
 21
-294.9
 31
0.0
  0
LINE
  8
0
 10
924.813284
 20
-253.3
 30
0.0
 11
924.813284
 21
-147.6
 31
0.0
  0
LINE
  8
0
 10
934.810682
 20
-212.2
 30
0.0
 11
934.810682
 21
-147.6
 31
0.0
  0
LINE
  8
0
 10
929.811983
 20
-149.6
 30
0.0
 11
924.813284
 21
-149.6
 31
0.0
  0
LINE
  8
0
 10
924.813284
 20
-149.6
 30
0.0
 11
910.813284
 21
-149.6
 31
0.0
  0
LINE
  8
0
 10
922.813284
 20
-150.2
 30
0.0
 11
924.813284
 21
-149.6
 31
0.0
  0
LINE
  8
0
 10
924.813284
 20
-149.6
 30
0.0
 11
922.813284
 21
-149.1
 31
0.0
  0
LINE
  8
0
 10
929.811983
 20
-149.6
 30
0.0
 11
934.810682
 21
-149.6
 31
0.0
  0
LINE
  8
0
 10
934.810682
 20
-149.6
 30
0.0
 11
940.810682
 21
-149.6
 31
0.0
  0
LINE
  8
0
 10
936.810682
 20
-149.1
 30
0.0
 11
934.810682
 21
-149.6
 31
0.0
  0
LINE
  8
0
 10
934.810682
 20
-149.6
 30
0.0
 11
936.810682
 21
-150.2
 31
0.0
  0
TEXT
  8
0
 10
910.813284
 20
-149.6
 30
0.0
 40
5.0
  7
CSTEXT
  1
１０
 41
0.800000
 72
     5
 11
918.813284
 21
-149.6
 31
0.0
  0
LINE
  8
0
 10
934.810682
 20
-212.2
 30
0.0
 11
934.810682
 21
-147.6
 31
0.0
  0
LINE
  8
0
 10
1073.810682
 20
-212.2
 30
0.0
 11
1073.810682
 21
-147.6
 31
0.0
  0
LINE
  8
0
 10
1004.310682
 20
-149.6
 30
0.0
 11
934.810682
 21
-149.6
 31
0.0
  0
LINE
  8
0
 10
936.810682
 20
-150.2
 30
0.0
 11
934.810682
 21
-149.6
 31
0.0
  0
LINE
  8
0
 10
934.810682
 20
-149.6
 30
0.0
 11
936.810682
 21
-149.1
 31
0.0
  0
LINE
  8
0
 10
1004.310682
 20
-149.6
 30
0.0
 11
1073.810682
 21
-149.6
 31
0.0
  0
LINE
  8
0
 10
1071.810682
 20
-149.1
 30
0.0
 11
1073.810682
 21
-149.6
 31
0.0
  0
LINE
  8
0
 10
1073.810682
 20
-149.6
 30
0.0
 11
1071.810682
 21
-150.2
 31
0.0
  0
TEXT
  8
0
 10
998.310682
 20
-149.6
 30
0.0
 40
5.0
  7
CSTEXT
  1
１３９
 41
0.800000
 72
     5
 11
1010.310682
 21
-149.6
 31
0.0
  0
LINE
  8
0
 10
1070.610682
 20
-213.2
 30
0.0
 11
1087.976416
 21
-213.2
 31
0.0
  0
LINE
  8
0
 10
1070.810682
 20
-264.2
 30
0.0
 11
1087.976416
 21
-264.2
 31
0.0
  0
LINE
  8
0
 10
1085.976416
 20
-238.7
 30
0.0
 11
1085.976416
 21
-213.2
 31
0.0
  0
LINE
  8
0
 10
1085.440518
 20
-215.2
 30
0.0
 11
1085.976416
 21
-213.2
 31
0.0
  0
LINE
  8
0
 10
1085.976416
 20
-213.2
 30
0.0
 11
1086.512315
 21
-215.2
 31
0.0
  0
LINE
  8
0
 10
1085.976416
 20
-238.7
 30
0.0
 11
1085.976416
 21
-264.2
 31
0.0
  0
LINE
  8
0
 10
1086.512315
 20
-262.2
 30
0.0
 11
1085.976416
 21
-264.2
 31
0.0
  0
LINE
  8
0
 10
1085.976416
 20
-264.2
 30
0.0
 11
1085.440518
 21
-262.2
 31
0.0
  0
TEXT
  8
0
 10
1085.976416
 20
-242.7
 30
0.0
 40
5.0
  7
CSTEXT
  1
５１
 50
90.0
 41
0.800000
 72
     5
 11
1085.976416
 21
-234.7
 31
0.0
  0
LINE
  8
0
 10
954.310682
 20
-279.1
 30
0.0
 11
954.310682
 21
-296.9
 31
0.0
  0
LINE
  8
0
 10
1054.310682
 20
-279.1
 30
0.0
 11
1054.310682
 21
-296.9
 31
0.0
  0
LINE
  8
0
 10
1004.310682
 20
-294.9
 30
0.0
 11
954.310682
 21
-294.9
 31
0.0
  0
LINE
  8
0
 10
956.310682
 20
-295.5
 30
0.0
 11
954.310682
 21
-294.9
 31
0.0
  0
LINE
  8
0
 10
954.310682
 20
-294.9
 30
0.0
 11
956.310682
 21
-294.4
 31
0.0
  0
LINE
  8
0
 10
1004.310682
 20
-294.9
 30
0.0
 11
1054.310682
 21
-294.9
 31
0.0
  0
LINE
  8
0
 10
1052.310682
 20
-294.4
 30
0.0
 11
1054.310682
 21
-294.9
 31
0.0
  0
LINE
  8
0
 10
1054.310682
 20
-294.9
 30
0.0
 11
1052.310682
 21
-295.5
 31
0.0
  0
TEXT
  8
0
 10
991.670682
 20
-294.9
 30
0.0
 40
5.0
  7
CSTEXT
  1
MAX.
 41
0.800000
 72
     5
 11
1004.950682
 21
-294.9
 31
0.0
  0
TEXT
  8
0
 10
1004.950682
 20
-294.9
 30
0.0
 40
5.0
  7
CSTEXT
  1
１００
 41
0.800000
 72
     5
 11
1016.950682
 21
-294.9
 31
0.0
  0
LINE
  8
0
 10
751.134208
 20
-264.2
 30
0.0
 11
738.898211
 21
-264.2
 31
0.0
  0
LINE
  8
0
 10
788.634208
 20
-183.7
 30
0.0
 11
738.898211
 21
-183.7
 31
0.0
  0
LINE
  8
0
 10
740.898211
 20
-223.9
 30
0.0
 11
740.898211
 21
-264.2
 31
0.0
  0
LINE
  8
0
 10
741.434109
 20
-262.2
 30
0.0
 11
740.898211
 21
-264.2
 31
0.0
  0
LINE
  8
0
 10
740.898211
 20
-264.2
 30
0.0
 11
740.362312
 21
-262.2
 31
0.0
  0
LINE
  8
0
 10
740.898211
 20
-223.9
 30
0.0
 11
740.898211
 21
-183.7
 31
0.0
  0
LINE
  8
0
 10
740.362312
 20
-185.7
 30
0.0
 11
740.898211
 21
-183.7
 31
0.0
  0
LINE
  8
0
 10
740.898211
 20
-183.7
 30
0.0
 11
741.434109
 21
-185.7
 31
0.0
  0
TEXT
  8
0
 10
740.898211
 20
-231.9
 30
0.0
 40
5.0
  7
CSTEXT
  1
８０．５
 50
90.0
 41
0.800000
 72
     5
 11
740.898211
 21
-215.9
 31
0.0
  0
LINE
  8
0
 10
751.134208
 20
-264.2
 30
0.0
 11
738.898211
 21
-264.2
 31
0.0
  0
LINE
  8
0
 10
753.634208
 20
-270.7
 30
0.0
 11
738.898211
 21
-270.7
 31
0.0
  0
LINE
  8
0
 10
740.898211
 20
-267.4
 30
0.0
 11
740.898211
 21
-264.2
 31
0.0
  0
LINE
  8
0
 10
740.898211
 20
-264.2
 30
0.0
 11
740.898211
 21
-258.2
 31
0.0
  0
LINE
  8
0
 10
740.362312
 20
-262.2
 30
0.0
 11
740.898211
 21
-264.2
 31
0.0
  0
LINE
  8
0
 10
740.898211
 20
-264.2
 30
0.0
 11
741.434109
 21
-262.2
 31
0.0
  0
LINE
  8
0
 10
740.898211
 20
-267.4
 30
0.0
 11
740.898211
 21
-270.7
 31
0.0
  0
LINE
  8
0
 10
740.898211
 20
-270.7
 30
0.0
 11
740.898211
 21
-280.7
 31
0.0
  0
LINE
  8
0
 10
741.434109
 20
-272.7
 30
0.0
 11
740.898211
 21
-270.7
 31
0.0
  0
LINE
  8
0
 10
740.898211
 20
-270.7
 30
0.0
 11
740.362312
 21
-272.7
 31
0.0
  0
TEXT
  8
0
 10
740.898211
 20
-280.7
 30
0.0
 40
5.0
  7
CSTEXT
  1
７
 50
90.0
 41
0.800000
 72
     5
 11
740.898211
 21
-276.7
 31
0.0
  0
LINE
  8
0
 10
939.810682
 20
-187.7
 30
0.0
 11
939.810682
 21
-155.9
 31
0.0
  0
LINE
  8
0
 10
1068.810682
 20
-187.7
 30
0.0
 11
1068.810682
 21
-155.9
 31
0.0
  0
LINE
  8
0
 10
1004.310682
 20
-157.9
 30
0.0
 11
939.810682
 21
-157.9
 31
0.0
  0
LINE
  8
0
 10
941.810682
 20
-158.4
 30
0.0
 11
939.810682
 21
-157.9
 31
0.0
  0
LINE
  8
0
 10
939.810682
 20
-157.9
 30
0.0
 11
941.810682
 21
-157.4
 31
0.0
  0
LINE
  8
0
 10
1004.310682
 20
-157.9
 30
0.0
 11
1068.810682
 21
-157.9
 31
0.0
  0
LINE
  8
0
 10
1066.810682
 20
-157.4
 30
0.0
 11
1068.810682
 21
-157.9
 31
0.0
  0
LINE
  8
0
 10
1068.810682
 20
-157.9
 30
0.0
 11
1066.810682
 21
-158.4
 31
0.0
  0
TEXT
  8
0
 10
998.310682
 20
-157.9
 30
0.0
 40
5.0
  7
CSTEXT
  1
１２９
 41
0.800000
 72
     5
 11
1010.310682
 21
-157.9
 31
0.0
  0
ARC
  8
7
 10
1063.810682
 20
-217.3
 30
0.0
 40
12.0
 50
73.808650
 51
106.191340
  0
ARC
  8
7
 10
1066.710682
 20
-207.3
 30
0.0
 40
1.599999
 50
0.0
 51
73.808590
  0
ARC
  8
7
 10
1060.910681
 20
-207.3
 30
0.0
 40
1.599999
 50
106.191280
 51
180.0
  0
TEXT
  8
3
 10
778.129826
 20
-278.2
 30
0.0
 40
5.0
  7
CSTEXT
  1
L
 41
0.800000
 72
     5
 11
781.449826
 21
-278.2
 31
0.0
  0
TEXT
  8
3
 10
778.129826
 20
-176.1
 30
0.0
 40
5.0
  7
CSTEXT
  1
K
 41
0.800000
 72
     5
 11
781.449826
 21
-176.1
 31
0.0
  0
TEXT
  8
3
 10
827.239536
 20
-274.3
 30
0.0
 40
5.0
  7
CSTEXT
  1
k
 41
0.800000
 72
     5
 11
830.559536
 21
-274.3
 31
0.0
  0
POLYLINE
  8
0
 66
     1
 70
     0
  0
VERTEX
  8
0
 10
849.212221
 20
-273.5
 30
0.0
  0
VERTEX
  8
0
 10
849.269966
 20
-273.4
 30
0.0
  0
VERTEX
  8
0
 10
849.327639
 20
-273.3
 30
0.0
  0
VERTEX
  8
0
 10
849.385170
 20
-273.2
 30
0.0
  0
VERTEX
  8
0
 10
849.442485
 20
-273.1
 30
0.0
  0
VERTEX
  8
0
 10
849.499515
 20
-273.0
 30
0.0
  0
VERTEX
  8
0
 10
849.556186
 20
-272.9
 30
0.0
  0
VERTEX
  8
0
 10
849.612427
 20
-272.8
 30
0.0
  0
VERTEX
  8
0
 10
849.668168
 20
-272.7
 30
0.0
  0
VERTEX
  8
0
 10
849.723335
 20
-272.5
 30
0.0
  0
VERTEX
  8
0
 10
849.777859
 20
-272.4
 30
0.0
  0
VERTEX
  8
0
 10
849.831666
 20
-272.2
 30
0.0
  0
VERTEX
  8
0
 10
849.884609
 20
-272.1
 30
0.0
  0
VERTEX
  8
0
 10
849.936230
 20
-271.9
 30
0.0
  0
VERTEX
  8
0
 10
849.985998
 20
-271.7
 30
0.0
  0
VERTEX
  8
0
 10
850.033379
 20
-271.5
 30
0.0
  0
VERTEX
  8
0
 10
850.077839
 20
-271.3
 30
0.0
  0
VERTEX
  8
0
 10
850.118846
 20
-271.1
 30
0.0
  0
VERTEX
  8
0
 10
850.155866
 20
-270.9
 30
0.0
  0
VERTEX
  8
0
 10
850.188367
 20
-270.7
 30
0.0
  0
VERTEX
  8
0
 10
850.215814
 20
-270.5
 30
0.0
  0
VERTEX
  8
0
 10
850.237675
 20
-270.4
 30
0.0
  0
VERTEX
  8
0
 10
850.253416
 20
-270.2
 30
0.0
  0
VERTEX
  8
0
 10
850.262604
 20
-270.1
 30
0.0
  0
VERTEX
  8
0
 10
850.265205
 20
-270.0
 30
0.0
  0
VERTEX
  8
0
 10
850.261285
 20
-269.8
 30
0.0
  0
VERTEX
  8
0
 10
850.250908
 20
-269.8
 30
0.0
  0
VERTEX
  8
0
 10
850.234141
 20
-269.7
 30
0.0
  0
VERTEX
  8
0
 10
850.211049
 20
-269.6
 30
0.0
  0
VERTEX
  8
0
 10
850.181696
 20
-269.6
 30
0.0
  0
VERTEX
  8
0
 10
850.146150
 20
-269.6
 30
0.0
  0
VERTEX
  8
0
 10
850.104475
 20
-269.7
 30
0.0
  0
VERTEX
  8
0
 10
850.056737
 20
-269.7
 30
0.0
  0
VERTEX
  8
0
 10
850.003002
 20
-269.8
 30
0.0
  0
VERTEX
  8
0
 10
849.943626
 20
-269.9
 30
0.0
  0
VERTEX
  8
0
 10
849.880134
 20
-270.1
 30
0.0
  0
VERTEX
  8
0
 10
849.814341
 20
-270.2
 30
0.0
  0
VERTEX
  8
0
 10
849.748064
 20
-270.4
 30
0.0
  0
VERTEX
  8
0
 10
849.683118
 20
-270.6
 30
0.0
  0
VERTEX
  8
0
 10
849.621320
 20
-270.8
 30
0.0
  0
VERTEX
  8
0
 10
849.564485
 20
-271.0
 30
0.0
  0
VERTEX
  8
0
 10
849.514429
 20
-271.3
 30
0.0
  0
VERTEX
  8
0
 10
849.472969
 20
-271.5
 30
0.0
  0
VERTEX
  8
0
 10
849.441919
 20
-271.7
 30
0.0
  0
VERTEX
  8
0
 10
849.423096
 20
-271.9
 30
0.0
  0
VERTEX
  8
0
 10
849.417811
 20
-272.2
 30
0.0
  0
VERTEX
  8
0
 10
849.425359
 20
-272.4
 30
0.0
  0
VERTEX
  8
0
 10
849.444531
 20
-272.5
 30
0.0
  0
VERTEX
  8
0
 10
849.474117
 20
-272.7
 30
0.0
  0
VERTEX
  8
0
 10
849.512908
 20
-272.9
 30
0.0
  0
VERTEX
  8
0
 10
849.559693
 20
-273.0
 30
0.0
  0
VERTEX
  8
0
 10
849.613263
 20
-273.1
 30
0.0
  0
VERTEX
  8
0
 10
849.672409
 20
-273.2
 30
0.0
  0
VERTEX
  8
0
 10
849.735921
 20
-273.3
 30
0.0
  0
VERTEX
  8
0
 10
849.802589
 20
-273.4
 30
0.0
  0
VERTEX
  8
0
 10
849.871205
 20
-273.4
 30
0.0
  0
VERTEX
  8
0
 10
849.940748
 20
-273.5
 30
0.0
  0
VERTEX
  8
0
 10
850.010962
 20
-273.5
 30
0.0
  0
VERTEX
  8
0
 10
850.081778
 20
-273.5
 30
0.0
  0
VERTEX
  8
0
 10
850.153131
 20
-273.4
 30
0.0
  0
VERTEX
  8
0
 10
850.224953
 20
-273.4
 30
0.0
  0
VERTEX
  8
0
 10
850.297178
 20
-273.4
 30
0.0
  0
VERTEX
  8
0
 10
850.369737
 20
-273.3
 30
0.0
  0
VERTEX
  8
0
 10
850.442565
 20
-273.2
 30
0.0
  0
VERTEX
  8
0
 10
850.515593
 20
-273.1
 30
0.0
  0
VERTEX
  8
0
 10
850.588756
 20
-273.1
 30
0.0
  0
VERTEX
  8
0
 10
850.661986
 20
-273.0
 30
0.0
  0
SEQEND
  8
0
  0
LINE
  8
0
 10
851.707015
 20
-250.9
 30
0.0
 11
858.773902
 21
-242.1
 31
0.0
  0
LINE
  8
0
 10
852.705380
 20
-248.6
 30
0.0
 11
851.707015
 21
-250.9
 31
0.0
  0
LINE
  8
0
 10
851.707015
 20
-250.9
 30
0.0
 11
853.709255
 21
-249.4
 31
0.0
  0
TEXT
  8
0
 10
862.773902
 20
-242.1
 30
0.0
 40
5.0
  7
CSTEXT
  1
M5ネジ
 41
0.800000
 72
     5
 11
877.413902
 21
-242.1
 31
0.0
  0
LINE
  8
0
 10
858.773902
 20
-242.1
 30
0.0
 11
877.413902
 21
-242.1
 31
0.0
  0
LINE
  8
0
 10
848.634208
 20
-213.9
 30
0.0
 11
858.244587
 21
-198.9
 31
0.0
  0
LINE
  8
0
 10
849.384800
 20
-211.5
 30
0.0
 11
848.634208
 21
-213.9
 31
0.0
  0
LINE
  8
0
 10
848.634208
 20
-213.9
 30
0.0
 11
850.468529
 21
-212.2
 31
0.0
  0
TEXT
  8
0
 10
862.244587
 20
-198.9
 30
0.0
 40
5.0
  7
CSTEXT
  1
ブスバー取付金具
 41
0.800000
 72
     5
 11
894.244587
 21
-198.9
 31
0.0
  0
LINE
  8
0
 10
858.244587
 20
-198.9
 30
0.0
 11
894.244587
 21
-198.9
 31
0.0
  0
LINE
  8
0
 10
805.083490
 20
-177.4
 30
0.0
 11
848.398884
 21
-161.3
 31
0.0
  0
LINE
  8
0
 10
807.108154
 20
-176.0
 30
0.0
 11
805.083490
 21
-177.4
 31
0.0
  0
LINE
  8
0
 10
805.083490
 20
-177.4
 30
0.0
 11
807.557019
 21
-177.2
 31
0.0
  0
TEXT
  8
0
 10
852.398884
 20
-161.3
 30
0.0
 40
5.0
  7
CSTEXT
  1
ブスバー
 41
0.800000
 72
     5
 11
868.398884
 21
-161.3
 31
0.0
  0
LINE
  8
0
 10
848.398884
 20
-161.3
 30
0.0
 11
868.398884
 21
-161.3
 31
0.0
  0
TEXT
  8
0
 10
255.618524
 20
-457.5
 30
0.0
 40
10.0
  7
CSTEXT
  1
外形寸法図
 41
0.800000
 72
     5
 11
327.618524
 21
-457.5
 31
0.0
  0
LINE
  8
0
 10
255.618524
 20
-458.5
 30
0.0
 11
327.618524
 21
-458.5
 31
0.0
  0
TEXT
  8
0
 10
177.118524
 20
-472.5
 30
0.0
 40
10.0
  7
CSTEXT
  1
１１００Ｖ以下低圧変成器ＣＴシリーズ　ＣＴ－１５ＬＭＳ
 41
0.800000
 72
     5
 11
406.118524
 21
-472.5
 31
0.0
  0
LINE
  8
0
 10
177.118524
 20
-473.5
 30
0.0
 11
406.118524
 21
-473.5
 31
0.0
  0
LINE
  8
0
 62
     7
 10
5.0
 20
-845.0
 30
0.0
 11
5.0
 21
-440.0
 31
0.0
  0
LINE
  8
0
 62
     7
 10
5.0
 20
-845.0
 30
0.0
 11
585.0
 21
-845.0
 31
0.0
  0
LINE
  8
0
 62
     7
 10
585.0
 20
-440.0
 30
0.0
 11
585.0
 21
-845.0
 31
0.0
  0
LINE
  8
0
 62
     7
 10
585.0
 20
-440.0
 30
0.0
 11
5.0
 21
-440.0
 31
0.0
  0
LINE
  8
0
 62
     7
 10
0.0
 20
-435.0
 30
0.0
 11
0.0
 21
-850.0
 31
0.0
  0
LINE
  8
0
 62
     7
 10
590.0
 20
-850.0
 30
0.0
 11
590.0
 21
-435.0
 31
0.0
  0
LINE
  8
0
 62
     7
 10
590.0
 20
-435.0
 30
0.0
 11
0.0
 21
-435.0
 31
0.0
  0
LINE
  8
0
 62
     7
 10
590.0
 20
-850.0
 30
0.0
 11
0.0
 21
-850.0
 31
0.0
  0
TEXT
  8
0
 10
236.618524
 20
-487.5
 30
0.0
 40
10.0
  7
CSTEXT
  1
検定専用品　ブスバー配線用
 41
0.800000
 72
     5
 11
346.618524
 21
-487.5
 31
0.0
  0
LINE
  8
0
 10
236.618524
 20
-488.5
 30
0.0
 11
346.618524
 21
-488.5
 31
0.0
  0
TEXT
  8
3
 10
1.000000
 20
-849.5
 30
0.0
 40
3.500000
  7
CSTEXT
  1
BK-15LMS-12
 41
0.800000
 72
     5
 11
26.564000
 21
-849.5
 31
0.0
  0
TEXT
  8
0
 10
194.118524
 20
-502.5
 30
0.0
 40
10.0
  7
CSTEXT
  1
１０００Ａ、１２００Ａ、１５００Ａ、２０００Ａ
 41
0.800000
 72
     5
 11
389.118524
 21
-502.5
 31
0.0
  0
LINE
  8
0
 10
389.118524
 20
-503.5
 30
0.0
 11
194.118524
 21
-503.5
 31
0.0
  0
LINE
  8
7
 10
181.034211
 20
-626.7
 30
0.0
 11
181.034211
 21
-620.7
 31
0.0
  0
LINE
  8
7
 62
     4
  6
PHANTOM
 10
193.134208
 20
-706.2
 30
0.0
 11
193.134208
 21
-595.3
 31
0.0
  0
LINE
  8
7
 10
160.634208
 20
-695.7
 30
0.0
 11
155.634208
 21
-695.7
 31
0.0
  0
LINE
  8
7
 10
156.034208
 20
-694.2
 30
0.0
 11
156.034208
 21
-695.7
 31
0.0
  0
LINE
  8
7
 10
155.634208
 20
-694.2
 30
0.0
 11
155.634208
 21
-695.7
 31
0.0
  0
LINE
  8
7
 10
160.234208
 20
-694.2
 30
0.0
 11
160.234208
 21
-695.7
 31
0.0
  0
LINE
  8
7
 10
160.634208
 20
-694.2
 30
0.0
 11
160.634208
 21
-695.7
 31
0.0
  0
LINE
  8
7
 10
181.034211
 20
-626.2
 30
0.0
 11
182.534211
 21
-626.2
 31
0.0
  0
LINE
  8
7
 10
181.034211
 20
-626.7
 30
0.0
 11
182.534211
 21
-626.7
 31
0.0
  0
LINE
  8
7
 10
181.034211
 20
-621.2
 30
0.0
 11
182.534211
 21
-621.2
 31
0.0
  0
LINE
  8
7
 10
181.034211
 20
-620.7
 30
0.0
 11
182.534211
 21
-620.7
 31
0.0
  0
LINE
  8
7
 62
     4
  6
PHANTOM
 10
205.134208
 20
-706.2
 30
0.0
 11
205.134208
 21
-595.3
 31
0.0
  0
LINE
  8
6
 10
199.134208
 20
-712.1
 30
0.0
 11
199.134208
 21
-587.7
 31
0.0
  0
LINE
  8
7
 10
237.634208
 20
-695.3
 30
0.0
 11
242.634208
 21
-695.3
 31
0.0
  0
LINE
  8
7
 10
238.034208
 20
-693.8
 30
0.0
 11
238.034208
 21
-695.3
 31
0.0
  0
LINE
  8
7
 10
237.634208
 20
-693.8
 30
0.0
 11
237.634208
 21
-695.3
 31
0.0
  0
LINE
  8
7
 10
242.234208
 20
-693.8
 30
0.0
 11
242.234208
 21
-695.3
 31
0.0
  0
LINE
  8
7
 10
242.634208
 20
-693.8
 30
0.0
 11
242.634208
 21
-695.3
 31
0.0
  0
POINT
  8
7
 10
247.634208
 20
-689.2
 30
0.0
  0
LINE
  8
7
 62
     4
  6
PHANTOM
 10
354.310682
 20
-702.1
 30
0.0
 11
354.310682
 21
-599.1
 31
0.0
  0
LINE
  8
6
 10
404.310682
 20
-708.0
 30
0.0
 11
404.310682
 21
-589.7
 31
0.0
  0
LINE
  8
7
 10
342.310682
 20
-695.7
 30
0.0
 11
347.310682
 21
-695.7
 31
0.0
  0
LINE
  8
7
 10
346.910682
 20
-694.2
 30
0.0
 11
346.910682
 21
-695.7
 31
0.0
  0
LINE
  8
7
 10
342.310682
 20
-694.2
 30
0.0
 11
342.310682
 21
-695.7
 31
0.0
  0
LINE
  8
7
 10
342.710682
 20
-694.2
 30
0.0
 11
342.710682
 21
-695.7
 31
0.0
  0
LINE
  8
7
 10
347.310682
 20
-694.2
 30
0.0
 11
347.310682
 21
-695.7
 31
0.0
  0
LINE
  8
7
 62
     4
  6
PHANTOM
 10
454.310682
 20
-702.1
 30
0.0
 11
454.310682
 21
-599.1
 31
0.0
  0
LINE
  8
7
 10
461.310682
 20
-694.2
 30
0.0
 11
461.310682
 21
-695.7
 31
0.0
  0
LINE
  8
7
 10
466.310682
 20
-694.2
 30
0.0
 11
466.310682
 21
-695.7
 31
0.0
  0
LINE
  8
7
 10
461.710682
 20
-694.2
 30
0.0
 11
461.710682
 21
-695.7
 31
0.0
  0
LINE
  8
7
 10
465.910682
 20
-694.2
 30
0.0
 11
465.910682
 21
-695.7
 31
0.0
  0
LINE
  8
7
 10
466.310682
 20
-695.7
 30
0.0
 11
461.310682
 21
-695.7
 31
0.0
  0
ARC
  8
7
 10
462.810682
 20
-614.7
 30
0.0
 40
6.000000
 50
0.000000
 51
90.000000
  0
ARC
  8
7
 10
468.610682
 20
-640.4
 30
0.0
 40
2.200000
 50
0.000000
 51
90.000000
  0
ARC
  8
7
 10
470.010682
 20
-639.2
 30
0.0
 40
1.000000
 50
0.000000
 51
90.000000
  0
LINE
  8
7
 10
473.810682
 20
-644.7
 30
0.0
 11
471.010682
 21
-644.7
 31
0.0
  0
LINE
  8
7
 10
471.010682
 20
-644.7
 30
0.0
 11
471.010682
 21
-639.2
 31
0.0
  0
LINE
  8
7
 10
468.610682
 20
-638.2
 30
0.0
 11
455.610682
 21
-638.2
 31
0.0
  0
POINT
  8
7
 10
463.810682
 20
-635.7
 30
0.0
  0
LINE
  8
7
 10
468.310682
 20
-633.6
 30
0.0
 11
459.310682
 21
-633.6
 31
0.0
  0
LINE
  8
7
 10
459.310682
 20
-633.6
 30
0.0
 11
459.310682
 21
-632.3
 31
0.0
  0
LINE
  8
7
 10
468.310682
 20
-633.6
 30
0.0
 11
468.310682
 21
-632.3
 31
0.0
  0
LINE
  8
7
 10
459.635684
 20
-634.9
 30
0.0
 11
459.635684
 21
-633.6
 31
0.0
  0
LINE
  8
7
 10
467.985680
 20
-634.9
 30
0.0
 11
467.985680
 21
-633.6
 31
0.0
  0
POINT
  8
7
 10
463.810682
 20
-635.7
 30
0.0
  0
LINE
  8
7
 10
458.810682
 20
-634.9
 30
0.0
 11
468.810682
 21
-634.9
 31
0.0
  0
LINE
  8
7
 10
338.310682
 20
-635.7
 30
0.0
 11
470.310682
 21
-635.7
 31
0.0
  0
LINE
  8
7
 10
458.810682
 20
-634.9
 30
0.0
 11
458.810682
 21
-635.7
 31
0.0
  0
LINE
  8
7
 10
468.810682
 20
-635.7
 30
0.0
 11
468.810682
 21
-634.9
 31
0.0
  0
LINE
  8
7
 10
463.810682
 20
-633.6
 30
0.0
 11
463.060129
 21
-634.9
 31
0.0
  0
LINE
  8
7
 10
464.561234
 20
-633.6
 30
0.0
 11
463.810682
 21
-634.9
 31
0.0
  0
ARC
  8
7
 10
468.810682
 20
-687.2
 30
0.0
 40
2.000000
 50
270.000000
 51
360.000000
  0
LINE
  8
7
 10
470.810682
 20
-679.3
 30
0.0
 11
470.810682
 21
-687.2
 31
0.0
  0
LINE
  8
7
 10
468.810682
 20
-689.2
 30
0.0
 11
330.770732
 21
-689.2
 31
0.0
  0
LINE
  8
7
 10
459.210681
 20
-690.2
 30
0.0
 11
468.410682
 21
-690.2
 31
0.0
  0
LINE
  8
7
 10
468.410681
 20
-690.2
 30
0.0
 11
468.410681
 21
-693.8
 31
0.0
  0
LINE
  8
7
 10
468.410676
 20
-693.8
 30
0.0
 11
467.710677
 21
-694.2
 31
0.0
  0
LINE
  8
7
 10
467.710681
 20
-694.2
 30
0.0
 11
459.910683
 21
-694.2
 31
0.0
  0
LINE
  8
7
 10
459.910687
 20
-694.2
 30
0.0
 11
459.210687
 21
-693.8
 31
0.0
  0
LINE
  8
7
 10
459.210682
 20
-693.8
 30
0.0
 11
459.210682
 21
-690.2
 31
0.0
  0
LINE
  8
7
 10
461.510682
 20
-693.8
 30
0.0
 11
461.510682
 21
-690.2
 31
0.0
  0
LINE
  8
7
 10
466.110682
 20
-693.8
 30
0.0
 11
466.110682
 21
-690.2
 31
0.0
  0
LINE
  8
7
 10
459.210681
 20
-690.2
 30
0.0
 11
458.810682
 21
-690.2
 31
0.0
  0
LINE
  8
7
 10
458.810682
 20
-690.2
 30
0.0
 11
458.810682
 21
-689.2
 31
0.0
  0
LINE
  8
7
 10
458.810682
 20
-689.2
 30
0.0
 11
468.810682
 21
-689.2
 31
0.0
  0
LINE
  8
7
 10
468.810682
 20
-689.2
 30
0.0
 11
468.810682
 21
-690.2
 31
0.0
  0
LINE
  8
7
 10
468.810682
 20
-690.2
 30
0.0
 11
468.410682
 21
-690.2
 31
0.0
  0
POINT
  8
7
 10
463.810682
 20
-689.2
 30
0.0
  0
LINE
  8
7
 62
     4
  6
DASHED
 10
456.810682
 20
-689.2
 30
0.0
 11
456.810682
 21
-638.2
 31
0.0
  0
LINE
  8
7
 10
470.810682
 20
-679.3
 30
0.0
 11
470.810682
 21
-640.4
 31
0.0
  0
ARC
  8
7
 10
470.310682
 20
-639.2
 30
0.0
 40
3.500000
 50
0.000000
 51
90.000000
  0
LINE
  8
7
 10
473.810682
 20
-644.7
 30
0.0
 11
473.810682
 21
-639.2
 31
0.0
  0
POINT
  8
7
 10
468.810672
 20
-689.2
 30
0.0
  0
POINT
  8
7
 10
470.010684
 20
-638.2
 30
0.0
  0
CIRCLE
  8
7
 10
458.310682
 20
-623.7
 30
0.0
 40
5.249999
  0
CIRCLE
  8
7
 10
458.310682
 20
-623.7
 30
0.0
 40
5.749999
  0
POINT
  8
7
 10
458.310682
 20
-623.7
 30
0.0
  0
LINE
  8
7
 10
468.810682
 20
-635.7
 30
0.0
 11
468.810682
 21
-614.7
 31
0.0
  0
ARC
  8
7
 10
345.810682
 20
-614.7
 30
0.0
 40
6.000000
 50
90.000000
 51
180.000000
  0
LINE
  8
7
 10
407.310682
 20
-679.3
 30
0.0
 11
407.310682
 21
-676.3
 31
0.0
  0
LINE
  8
7
 10
401.310682
 20
-679.3
 30
0.0
 11
401.310682
 21
-676.3
 31
0.0
  0
LINE
  8
7
 10
407.310682
 20
-679.3
 30
0.0
 11
401.310682
 21
-679.3
 31
0.0
  0
LINE
  8
7
 10
407.310682
 20
-676.3
 30
0.0
 11
401.310682
 21
-676.3
 31
0.0
  0
ARC
  8
7
 10
340.010682
 20
-640.4
 30
0.0
 40
2.200000
 50
90.000000
 51
180.000000
  0
ARC
  8
7
 10
338.610682
 20
-639.2
 30
0.0
 40
1.000000
 50
90.000000
 51
180.000000
  0
ARC
  8
7
 10
338.310682
 20
-639.2
 30
0.0
 40
3.500000
 50
90.000000
 51
180.000000
  0
LINE
  8
7
 10
334.810682
 20
-644.7
 30
0.0
 11
337.610682
 21
-644.7
 31
0.0
  0
LINE
  8
7
 10
337.610682
 20
-644.7
 30
0.0
 11
337.610682
 21
-639.2
 31
0.0
  0
LINE
  8
7
 10
334.810682
 20
-639.2
 30
0.0
 11
334.810682
 21
-644.7
 31
0.0
  0
ARC
  8
7
 10
344.810682
 20
-642.3
 30
0.0
 40
12.0
 50
73.808650
 51
106.191340
  0
POINT
  8
7
 10
344.810682
 20
-635.7
 30
0.0
  0
LINE
  8
7
 10
340.310682
 20
-633.6
 30
0.0
 11
349.310682
 21
-633.6
 31
0.0
  0
LINE
  8
7
 10
349.310682
 20
-633.6
 30
0.0
 11
349.310682
 21
-632.3
 31
0.0
  0
LINE
  8
7
 10
340.310682
 20
-633.6
 30
0.0
 11
340.310682
 21
-632.3
 31
0.0
  0
ARC
  8
7
 10
347.710682
 20
-632.3
 30
0.0
 40
1.599999
 50
0.0
 51
73.808590
  0
ARC
  8
7
 10
341.910681
 20
-632.3
 30
0.0
 40
1.599999
 50
106.191280
 51
180.0
  0
LINE
  8
7
 10
348.985680
 20
-634.9
 30
0.0
 11
348.985680
 21
-633.6
 31
0.0
  0
LINE
  8
7
 10
340.635684
 20
-634.9
 30
0.0
 11
340.635684
 21
-633.6
 31
0.0
  0
POINT
  8
7
 10
344.810682
 20
-635.7
 30
0.0
  0
LINE
  8
7
 10
344.810682
 20
-635.7
 30
0.0
 11
349.810682
 21
-635.7
 31
0.0
  0
LINE
  8
7
 10
349.810682
 20
-634.9
 30
0.0
 11
339.810682
 21
-634.9
 31
0.0
  0
LINE
  8
7
 10
339.810682
 20
-635.7
 30
0.0
 11
344.810682
 21
-635.7
 31
0.0
  0
LINE
  8
7
 10
349.810682
 20
-634.9
 30
0.0
 11
349.810682
 21
-635.7
 31
0.0
  0
LINE
  8
7
 10
339.810682
 20
-635.7
 30
0.0
 11
339.810682
 21
-634.9
 31
0.0
  0
LINE
  8
7
 10
344.810682
 20
-633.6
 30
0.0
 11
345.561234
 21
-634.9
 31
0.0
  0
LINE
  8
7
 10
344.060129
 20
-633.6
 30
0.0
 11
344.810682
 21
-634.9
 31
0.0
  0
LINE
  8
7
 10
349.439172
 20
-676.4
 30
0.0
 11
349.029752
 21
-676.4
 31
0.0
  0
LINE
  8
7
 10
347.901402
 20
-683.3
 30
0.0
 11
348.277412
 21
-682.5
 31
0.0
  0
LINE
  8
7
 10
348.277412
 20
-682.5
 30
0.0
 11
348.516392
 21
-681.5
 31
0.0
  0
LINE
  8
7
 10
348.516392
 20
-681.5
 30
0.0
 11
348.609482
 21
-680.5
 31
0.0
  0
LINE
  8
7
 10
348.609482
 20
-680.5
 30
0.0
 11
348.553232
 21
-679.5
 31
0.0
  0
LINE
  8
7
 10
348.553232
 20
-679.5
 30
0.0
 11
348.349732
 21
-678.5
 31
0.0
  0
LINE
  8
7
 10
348.349732
 20
-678.5
 30
0.0
 11
348.006512
 21
-677.7
 31
0.0
  0
LINE
  8
7
 10
348.006512
 20
-677.7
 30
0.0
 11
347.536292
 21
-676.9
 31
0.0
  0
LINE
  8
7
 10
347.637442
 20
-681.4
 30
0.0
 11
347.709512
 21
-680.5
 31
0.0
  0
LINE
  8
7
 10
347.709512
 20
-680.5
 30
0.0
 11
347.675472
 21
-679.6
 31
0.0
  0
LINE
  8
7
 10
347.675472
 20
-679.6
 30
0.0
 11
347.536522
 21
-678.8
 31
0.0
  0
LINE
  8
7
 10
349.029752
 20
-676.4
 30
0.0
 11
349.029752
 21
-675.1
 31
0.0
  0
LINE
  8
7
 10
351.730552
 20
-679.3
 30
0.0
 11
351.730552
 21
-669.3
 31
0.0
  0
ARC
  8
7
 10
352.730552
 20
-688.2
 30
0.0
 40
1.000000
 50
180.000000
 51
270.000000
  0
LINE
  8
7
 10
351.730552
 20
-679.3
 30
0.0
 11
351.730552
 21
-688.2
 31
0.0
  0
LINE
  8
7
 10
354.502092
 20
-689.2
 30
0.0
 11
354.502092
 21
-679.3
 31
0.0
  0
LINE
  8
7
 10
349.439172
 20
-685.8
 30
0.0
 11
349.439172
 21
-676.4
 31
0.0
  0
LINE
  8
7
 10
346.956482
 20
-676.2
 30
0.0
 11
346.288562
 21
-675.7
 31
0.0
  0
LINE
  8
7
 10
345.368662
 20
-684.0
 30
0.0
 11
345.742882
 21
-683.6
 31
0.0
  0
LINE
  8
7
 10
345.742882
 20
-683.6
 30
0.0
 11
346.061522
 21
-683.0
 31
0.0
  0
LINE
  8
7
 10
346.061522
 20
-683.0
 30
0.0
 11
346.313372
 21
-682.4
 31
0.0
  0
LINE
  8
7
 10
346.313372
 20
-682.4
 30
0.0
 11
346.489542
 21
-681.7
 31
0.0
  0
LINE
  8
7
 10
346.489542
 20
-681.7
 30
0.0
 11
346.583852
 21
-680.9
 31
0.0
  0
LINE
  8
7
 10
346.583852
 20
-680.9
 30
0.0
 11
346.592962
 21
-680.1
 31
0.0
  0
LINE
  8
7
 10
346.592962
 20
-680.1
 30
0.0
 11
346.516562
 21
-679.4
 31
0.0
  0
LINE
  8
7
 10
346.516562
 20
-679.4
 30
0.0
 11
346.357342
 21
-678.6
 31
0.0
  0
LINE
  8
7
 10
346.357342
 20
-678.6
 30
0.0
 11
346.120902
 21
-678.0
 31
0.0
  0
LINE
  8
7
 10
346.120902
 20
-678.0
 30
0.0
 11
345.815572
 21
-677.4
 31
0.0
  0
LINE
  8
7
 10
345.815572
 20
-677.4
 30
0.0
 11
345.452112
 21
-676.9
 31
0.0
  0
LINE
  8
7
 10
344.243532
 20
-685.0
 30
0.0
 11
344.804522
 21
-685.0
 31
0.0
  0
LINE
  8
7
 10
344.804522
 20
-685.0
 30
0.0
 11
345.362942
 21
-684.9
 31
0.0
  0
LINE
  8
7
 10
345.362942
 20
-684.9
 30
0.0
 11
345.898902
 21
-684.7
 31
0.0
  0
LINE
  8
7
 10
345.898902
 20
-684.7
 30
0.0
 11
346.393272
 21
-684.2
 31
0.0
  0
LINE
  8
7
 10
346.393272
 20
-684.2
 30
0.0
 11
346.828452
 21
-683.7
 31
0.0
  0
LINE
  8
7
 10
346.967292
 20
-677.3
 30
0.0
 11
346.557302
 21
-676.7
 31
0.0
  0
LINE
  8
7
 10
346.557302
 20
-676.7
 30
0.0
 11
346.082262
 21
-676.2
 31
0.0
  0
LINE
  8
7
 10
346.082262
 20
-676.2
 30
0.0
 11
345.559112
 21
-675.9
 31
0.0
  0
LINE
  8
7
 10
345.559112
 20
-675.9
 30
0.0
 11
345.006492
 21
-675.7
 31
0.0
  0
LINE
  8
7
 10
345.006492
 20
-675.7
 30
0.0
 11
344.444112
 21
-675.7
 31
0.0
  0
LINE
  8
7
 10
344.444112
 20
-675.7
 30
0.0
 11
343.892012
 21
-675.9
 31
0.0
  0
LINE
  8
7
 10
346.464762
 20
-680.3
 30
0.0
 11
344.344182
 21
-680.3
 31
0.0
  0
LINE
  8
7
 10
345.146062
 20
-675.9
 30
0.0
 11
346.464762
 21
-680.3
 31
0.0
  0
LINE
  8
7
 10
345.153952
 20
-684.7
 30
0.0
 11
346.464762
 21
-680.3
 31
0.0
  0
LINE
  8
7
 10
340.965342
 20
-680.0
 30
0.0
 11
340.965342
 21
-678.4
 31
0.0
  0
LINE
  8
7
 10
340.965342
 20
-682.1
 30
0.0
 11
340.965342
 21
-680.6
 31
0.0
  0
LINE
  8
7
 10
341.353162
 20
-678.4
 30
0.0
 11
340.965342
 21
-678.4
 31
0.0
  0
LINE
  8
7
 10
343.259732
 20
-675.5
 30
0.0
 11
342.554002
 21
-675.9
 31
0.0
  0
LINE
  8
7
 10
341.353162
 20
-680.0
 30
0.0
 11
342.490742
 21
-680.0
 31
0.0
  0
LINE
  8
7
 10
341.353162
 20
-680.6
 30
0.0
 11
342.490742
 21
-680.6
 31
0.0
  0
LINE
  8
7
 10
341.353162
 20
-680.0
 30
0.0
 11
341.353162
 21
-678.4
 31
0.0
  0
LINE
  8
7
 10
341.353162
 20
-682.1
 30
0.0
 11
341.353162
 21
-680.6
 31
0.0
  0
LINE
  8
7
 10
340.965342
 20
-682.1
 30
0.0
 11
341.353162
 21
-682.1
 31
0.0
  0
LINE
  8
7
 10
342.490742
 20
-680.0
 30
0.0
 11
342.490742
 21
-680.6
 31
0.0
  0
LINE
  8
7
 10
343.699962
 20
-684.7
 30
0.0
 11
344.243532
 21
-685.0
 31
0.0
  0
LINE
  8
7
 10
343.033362
 20
-684.7
 30
0.0
 11
344.344182
 21
-680.3
 31
0.0
  0
LINE
  8
7
 10
343.025472
 20
-675.9
 30
0.0
 11
344.344182
 21
-680.3
 31
0.0
  0
LINE
  8
7
 10
341.120832
 20
-669.3
 30
0.0
 11
341.120832
 21
-675.9
 31
0.0
  0
LINE
  8
7
 10
346.288562
 20
-675.7
 30
0.0
 11
345.557282
 21
-675.3
 31
0.0
  0
LINE
  8
7
 10
345.557282
 20
-675.3
 30
0.0
 11
344.789712
 21
-675.2
 31
0.0
  0
LINE
  8
7
 10
344.789712
 20
-675.2
 30
0.0
 11
344.014292
 21
-675.2
 31
0.0
  0
LINE
  8
7
 10
344.014292
 20
-675.2
 30
0.0
 11
343.259732
 21
-675.5
 31
0.0
  0
ARC
  8
7
 10
339.913932
 20
-669.8
 30
0.0
 40
0.500000
 50
90.000000
 51
180.000000
  0
ARC
  8
7
 10
338.509652
 20
-669.8
 30
0.0
 40
0.500000
 50
90.000000
 51
180.000000
  0
LINE
  8
7
 10
339.144092
 20
-675.9
 30
0.0
 11
338.222862
 21
-680.3
 31
0.0
  0
LINE
  8
7
 10
339.149292
 20
-684.7
 30
0.0
 11
338.222862
 21
-680.3
 31
0.0
  0
LINE
  8
7
 10
339.957032
 20
-680.6
 30
0.0
 11
339.957032
 21
-680.0
 31
0.0
  0
LINE
  8
7
 10
339.413932
 20
-669.8
 30
0.0
 11
339.413932
 21
-675.9
 31
0.0
  0
LINE
  8
7
 10
339.144092
 20
-675.9
 30
0.0
 11
345.146062
 21
-675.9
 31
0.0
  0
LINE
  8
7
 10
339.149292
 20
-684.7
 30
0.0
 11
345.153952
 21
-684.7
 31
0.0
  0
LINE
  8
7
 10
339.957032
 20
-680.0
 30
0.0
 11
340.965342
 21
-680.0
 31
0.0
  0
LINE
  8
7
 10
339.957032
 20
-680.6
 30
0.0
 11
340.965342
 21
-680.6
 31
0.0
  0
LINE
  8
7
 10
338.009652
 20
-685.8
 30
0.0
 11
338.009652
 21
-689.2
 31
0.0
  0
LINE
  8
7
 10
339.413932
 20
-685.8
 30
0.0
 11
339.413932
 21
-688.2
 31
0.0
  0
ARC
  8
7
 10
336.132352
 20
-688.2
 30
0.0
 40
1.000000
 50
180.000000
 51
270.000000
  0
LINE
  8
7
 10
335.132352
 20
-685.8
 30
0.0
 11
335.132352
 21
-688.2
 31
0.0
  0
ARC
  8
7
 10
340.413932
 20
-688.2
 30
0.0
 40
1.000000
 50
180.000000
 51
270.000000
  0
LINE
  8
7
 10
339.413932
 20
-684.7
 30
0.0
 11
339.413932
 21
-685.8
 31
0.0
  0
LINE
  8
7
 10
341.120832
 20
-684.7
 30
0.0
 11
341.120832
 21
-685.8
 31
0.0
  0
LINE
  8
7
 10
335.132352
 20
-685.8
 30
0.0
 11
335.132352
 21
-669.3
 31
0.0
  0
LINE
  8
7
 10
338.009652
 20
-669.8
 30
0.0
 11
338.009652
 21
-685.8
 31
0.0
  0
LINE
  8
7
 10
342.390012
 20
-684.7
 30
0.0
 11
343.079542
 21
-685.2
 31
0.0
  0
LINE
  8
7
 10
343.079542
 20
-685.2
 30
0.0
 11
343.824562
 21
-685.5
 31
0.0
  0
LINE
  8
7
 10
343.824562
 20
-685.5
 30
0.0
 11
344.597482
 21
-685.6
 31
0.0
  0
LINE
  8
7
 10
344.597482
 20
-685.6
 30
0.0
 11
345.369672
 21
-685.5
 31
0.0
  0
LINE
  8
7
 10
345.369672
 20
-685.5
 30
0.0
 11
346.112532
 21
-685.2
 31
0.0
  0
LINE
  8
7
 10
346.112532
 20
-685.2
 30
0.0
 11
346.798532
 21
-684.7
 31
0.0
  0
LINE
  8
7
 10
341.120832
 20
-675.1
 30
0.0
 11
349.029752
 21
-675.1
 31
0.0
  0
LINE
  8
7
 10
351.730552
 20
-685.8
 30
0.0
 11
339.413932
 21
-685.8
 31
0.0
  0
LINE
  8
7
 10
346.798532
 20
-684.7
 30
0.0
 11
347.402282
 21
-684.1
 31
0.0
  0
LINE
  8
7
 10
347.402282
 20
-684.1
 30
0.0
 11
347.901402
 21
-683.3
 31
0.0
  0
LINE
  8
7
 10
347.536292
 20
-676.9
 30
0.0
 11
346.956482
 21
-676.2
 31
0.0
  0
LINE
  8
7
 10
346.828452
 20
-683.7
 30
0.0
 11
347.188922
 21
-683.0
 31
0.0
  0
LINE
  8
7
 10
347.188922
 20
-683.0
 30
0.0
 11
347.461822
 21
-682.2
 31
0.0
  0
LINE
  8
7
 10
347.461822
 20
-682.2
 30
0.0
 11
347.637442
 21
-681.4
 31
0.0
  0
LINE
  8
7
 10
347.536522
 20
-678.8
 30
0.0
 11
347.297622
 21
-678.0
 31
0.0
  0
LINE
  8
7
 10
347.297622
 20
-678.0
 30
0.0
 11
346.967292
 21
-677.3
 31
0.0
  0
LINE
  8
7
 10
349.410682
 20
-690.2
 30
0.0
 11
340.210681
 21
-690.2
 31
0.0
  0
LINE
  8
7
 10
340.210682
 20
-690.2
 30
0.0
 11
340.210682
 21
-693.8
 31
0.0
  0
LINE
  8
7
 10
340.210687
 20
-693.8
 30
0.0
 11
340.910687
 21
-694.2
 31
0.0
  0
LINE
  8
7
 10
340.910683
 20
-694.2
 30
0.0
 11
348.710681
 21
-694.2
 31
0.0
  0
LINE
  8
7
 10
348.710677
 20
-694.2
 30
0.0
 11
349.410676
 21
-693.8
 31
0.0
  0
LINE
  8
7
 10
349.410681
 20
-693.8
 30
0.0
 11
349.410681
 21
-690.2
 31
0.0
  0
LINE
  8
7
 10
347.110682
 20
-693.8
 30
0.0
 11
347.110682
 21
-690.2
 31
0.0
  0
LINE
  8
7
 10
342.510682
 20
-693.8
 30
0.0
 11
342.510682
 21
-690.2
 31
0.0
  0
ARC
  8
7
 10
348.260681
 20
-692.3
 30
0.0
 40
1.853135
 50
231.642265
 51
270.0
  0
ARC
  8
7
 10
344.810682
 20
-687.3
 30
0.0
 40
6.812498
 50
250.268330
 51
289.731580
  0
ARC
  8
7
 10
341.360683
 20
-692.3
 30
0.0
 40
1.853133
 50
270.0
 51
308.357670
  0
LINE
  8
7
 10
349.410682
 20
-690.2
 30
0.0
 11
349.810682
 21
-690.2
 31
0.0
  0
LINE
  8
7
 10
349.810682
 20
-690.2
 30
0.0
 11
349.810682
 21
-689.2
 31
0.0
  0
LINE
  8
7
 10
349.810682
 20
-689.2
 30
0.0
 11
339.810682
 21
-689.2
 31
0.0
  0
LINE
  8
7
 10
339.810682
 20
-689.2
 30
0.0
 11
339.810682
 21
-690.2
 31
0.0
  0
LINE
  8
7
 10
339.810682
 20
-690.2
 30
0.0
 11
340.210681
 21
-690.2
 31
0.0
  0
POINT
  8
7
 10
344.810682
 20
-689.2
 30
0.0
  0
LINE
  8
7
 62
     4
  6
DASHED
 10
351.810682
 20
-689.2
 30
0.0
 11
351.810682
 21
-638.2
 31
0.0
  0
LINE
  8
7
 10
354.502092
 20
-679.3
 30
0.0
 11
354.502092
 21
-638.6
 31
0.0
  0
LINE
  8
7
 10
337.810682
 20
-669.3
 30
0.0
 11
337.810682
 21
-640.4
 31
0.0
  0
LINE
  8
7
 10
339.810682
 20
-635.7
 30
0.0
 11
339.810682
 21
-614.7
 31
0.0
  0
LINE
  8
7
 10
345.810682
 20
-608.7
 30
0.0
 11
462.810682
 21
-608.7
 31
0.0
  0
LINE
  8
7
 10
338.610682
 20
-638.2
 30
0.0
 11
470.010682
 21
-638.2
 31
0.0
  0
POINT
  8
7
 10
473.810686
 20
-639.2
 30
0.0
  0
POINT
  8
7
 10
334.810680
 20
-639.2
 30
0.0
  0
POINT
  8
7
 10
339.810680
 20
-614.7
 30
0.0
  0
POINT
  8
7
 10
468.810674
 20
-614.7
 30
0.0
  0
LINE
  8
7
 10
207.634208
 20
-608.7
 30
0.0
 11
205.134208
 21
-608.7
 31
0.0
  0
LINE
  8
7
 10
332.487462
 20
-679.6
 30
0.0
 11
332.392522
 21
-679.1
 31
0.0
  0
LINE
  8
7
 10
332.392522
 20
-679.1
 30
0.0
 11
332.247572
 21
-678.5
 31
0.0
  0
LINE
  8
7
 10
332.247572
 20
-678.5
 30
0.0
 11
332.055772
 21
-678.0
 31
0.0
  0
LINE
  8
7
 10
332.055772
 20
-678.0
 30
0.0
 11
331.821302
 21
-677.5
 31
0.0
  0
LINE
  8
7
 10
331.475832
 20
-684.9
 30
0.0
 11
331.892212
 21
-684.6
 31
0.0
  0
LINE
  8
7
 10
331.892212
 20
-684.6
 30
0.0
 11
332.281442
 21
-684.3
 31
0.0
  0
LINE
  8
7
 10
332.281442
 20
-684.3
 30
0.0
 11
332.634892
 21
-683.9
 31
0.0
  0
LINE
  8
7
 10
332.634892
 20
-676.9
 30
0.0
 11
332.284842
 21
-676.5
 31
0.0
  0
LINE
  8
7
 10
332.284842
 20
-676.5
 30
0.0
 11
331.899582
 21
-676.1
 31
0.0
  0
LINE
  8
7
 10
331.899582
 20
-676.1
 30
0.0
 11
331.487502
 21
-675.9
 31
0.0
  0
LINE
  8
7
 10
332.398002
 20
-680.3
 30
0.0
 11
329.823542
 21
-680.3
 31
0.0
  0
LINE
  8
7
 10
331.762932
 20
-683.5
 30
0.0
 11
332.018912
 21
-683.0
 31
0.0
  0
LINE
  8
7
 10
332.018912
 20
-683.0
 30
0.0
 11
332.228182
 21
-682.4
 31
0.0
  0
LINE
  8
7
 10
332.228182
 20
-682.4
 30
0.0
 11
332.385642
 21
-681.9
 31
0.0
  0
LINE
  8
7
 10
332.385642
 20
-681.9
 30
0.0
 11
332.487462
 21
-681.2
 31
0.0
  0
LINE
  8
7
 10
331.486692
 20
-675.9
 30
0.0
 11
332.398002
 21
-680.3
 31
0.0
  0
LINE
  8
7
 10
331.501332
 20
-684.7
 30
0.0
 11
332.398002
 21
-680.3
 31
0.0
  0
LINE
  8
7
 10
329.023982
 20
-680.0
 30
0.0
 11
329.023982
 21
-680.6
 31
0.0
  0
LINE
  8
7
 10
325.486904
 20
-680.0
 30
0.0
 11
327.095214
 21
-680.0
 31
0.0
  0
LINE
  8
7
 10
325.486904
 20
-680.6
 30
0.0
 11
327.095214
 21
-680.6
 31
0.0
  0
LINE
  8
7
 10
325.486904
 20
-680.6
 30
0.0
 11
325.486904
 21
-680.0
 31
0.0
  0
LINE
  8
7
 10
327.486402
 20
-680.0
 30
0.0
 11
329.023982
 21
-680.0
 31
0.0
  0
LINE
  8
7
 10
327.486402
 20
-680.6
 30
0.0
 11
329.023982
 21
-680.6
 31
0.0
  0
LINE
  8
7
 10
327.095214
 20
-680.0
 30
0.0
 11
327.095214
 21
-678.4
 31
0.0
  0
LINE
  8
7
 10
327.095214
 20
-682.2
 30
0.0
 11
327.095214
 21
-680.6
 31
0.0
  0
LINE
  8
7
 10
327.486402
 20
-680.0
 30
0.0
 11
327.486402
 21
-678.4
 31
0.0
  0
LINE
  8
7
 10
327.486402
 20
-682.2
 30
0.0
 11
327.486402
 21
-680.6
 31
0.0
  0
LINE
  8
7
 10
327.095214
 20
-682.2
 30
0.0
 11
327.486402
 21
-682.2
 31
0.0
  0
LINE
  8
7
 10
327.486402
 20
-678.4
 30
0.0
 11
327.095214
 21
-678.4
 31
0.0
  0
LINE
  8
7
 10
328.926252
 20
-684.7
 30
0.0
 11
329.822932
 21
-680.3
 31
0.0
  0
LINE
  8
7
 10
328.912222
 20
-675.9
 30
0.0
 11
329.823542
 21
-680.3
 31
0.0
  0
LINE
  8
7
 10
331.486692
 20
-675.9
 30
0.0
 11
325.734504
 21
-675.9
 31
0.0
  0
LINE
  8
7
 10
325.739714
 20
-684.7
 30
0.0
 11
331.501332
 21
-684.7
 31
0.0
  0
LINE
  8
7
 10
329.770732
 20
-669.3
 30
0.0
 11
329.770732
 21
-675.9
 31
0.0
  0
LINE
  8
7
 10
325.739714
 20
-684.7
 30
0.0
 11
324.813284
 21
-680.3
 31
0.0
  0
LINE
  8
7
 10
325.734504
 20
-675.9
 30
0.0
 11
324.813284
 21
-680.3
 31
0.0
  0
ARC
  8
7
 10
330.770732
 20
-688.2
 30
0.0
 40
1.000000
 50
180.000000
 51
270.000000
  0
LINE
  8
7
 10
329.770732
 20
-685.8
 30
0.0
 11
329.770732
 21
-688.2
 31
0.0
  0
LINE
  8
7
 10
329.770732
 20
-684.7
 30
0.0
 11
329.770732
 21
-685.8
 31
0.0
  0
LINE
  8
7
 10
332.634892
 20
-685.8
 30
0.0
 11
332.634892
 21
-675.8
 31
0.0
  0
LINE
  8
7
 10
251.707015
 20
-675.9
 30
0.0
 11
253.131606
 21
-680.3
 31
0.0
  0
LINE
  8
7
 10
251.701810
 20
-684.7
 30
0.0
 11
253.131606
 21
-680.3
 31
0.0
  0
LINE
  8
7
 10
248.634208
 20
-643.2
 30
0.0
 11
248.634208
 21
-635.7
 31
0.0
  0
ARC
  8
7
 10
247.134208
 20
-643.2
 30
0.0
 40
1.500000
 50
270.000000
 51
360.000000
  0
ARC
  8
7
 10
240.134208
 20
-642.3
 30
0.0
 40
12.0
 50
73.808650
 51
106.191340
  0
POINT
  8
7
 10
240.134208
 20
-635.7
 30
0.0
  0
LINE
  8
7
 10
235.634208
 20
-633.6
 30
0.0
 11
244.634208
 21
-633.6
 31
0.0
  0
LINE
  8
7
 10
244.634208
 20
-633.6
 30
0.0
 11
244.634208
 21
-632.3
 31
0.0
  0
LINE
  8
7
 10
235.634208
 20
-633.6
 30
0.0
 11
235.634208
 21
-632.3
 31
0.0
  0
ARC
  8
7
 10
243.034209
 20
-632.3
 30
0.0
 40
1.599999
 50
0.0
 51
73.808590
  0
ARC
  8
7
 10
237.234207
 20
-632.3
 30
0.0
 40
1.599999
 50
106.191280
 51
180.0
  0
LINE
  8
7
 10
244.309206
 20
-634.9
 30
0.0
 11
244.309206
 21
-633.6
 31
0.0
  0
LINE
  8
7
 10
235.959210
 20
-634.9
 30
0.0
 11
235.959210
 21
-633.6
 31
0.0
  0
POINT
  8
7
 10
240.134208
 20
-635.7
 30
0.0
  0
LINE
  8
7
 10
240.134208
 20
-635.7
 30
0.0
 11
245.134208
 21
-635.7
 31
0.0
  0
LINE
  8
7
 10
245.134208
 20
-634.9
 30
0.0
 11
235.134208
 21
-634.9
 31
0.0
  0
LINE
  8
7
 10
235.134208
 20
-635.7
 30
0.0
 11
240.134208
 21
-635.7
 31
0.0
  0
LINE
  8
7
 10
245.134208
 20
-634.9
 30
0.0
 11
245.134208
 21
-635.7
 31
0.0
  0
LINE
  8
7
 10
235.134208
 20
-635.7
 30
0.0
 11
235.134208
 21
-634.9
 31
0.0
  0
LINE
  8
7
 10
240.134208
 20
-633.6
 30
0.0
 11
240.884760
 21
-634.9
 31
0.0
  0
LINE
  8
7
 10
239.383655
 20
-633.6
 30
0.0
 11
240.134208
 21
-634.9
 31
0.0
  0
LINE
  8
7
 10
249.558491
 20
-678.4
 30
0.0
 11
249.946304
 21
-678.4
 31
0.0
  0
LINE
  8
7
 10
249.946304
 20
-682.2
 30
0.0
 11
249.558491
 21
-682.2
 31
0.0
  0
LINE
  8
7
 10
249.558491
 20
-682.2
 30
0.0
 11
249.558491
 21
-680.6
 31
0.0
  0
LINE
  8
7
 10
249.558491
 20
-680.0
 30
0.0
 11
249.558491
 21
-678.4
 31
0.0
  0
LINE
  8
7
 10
249.946304
 20
-682.2
 30
0.0
 11
249.946304
 21
-680.6
 31
0.0
  0
LINE
  8
7
 10
249.946304
 20
-680.0
 30
0.0
 11
249.946304
 21
-678.4
 31
0.0
  0
LINE
  8
7
 10
249.558491
 20
-680.6
 30
0.0
 11
248.420907
 21
-680.6
 31
0.0
  0
LINE
  8
7
 10
249.558491
 20
-680.0
 30
0.0
 11
248.420907
 21
-680.0
 31
0.0
  0
LINE
  8
7
 10
250.954616
 20
-680.6
 30
0.0
 11
250.954616
 21
-680.0
 31
0.0
  0
LINE
  8
7
 10
250.954616
 20
-680.6
 30
0.0
 11
249.946304
 21
-680.6
 31
0.0
  0
LINE
  8
7
 10
250.954616
 20
-680.0
 30
0.0
 11
249.946304
 21
-680.0
 31
0.0
  0
LINE
  8
7
 10
248.420907
 20
-680.0
 30
0.0
 11
248.420907
 21
-680.6
 31
0.0
  0
LINE
  8
7
 10
247.518636
 20
-684.7
 30
0.0
 11
246.621961
 21
-680.3
 31
0.0
  0
LINE
  8
7
 10
244.957388
 20
-675.9
 30
0.0
 11
244.484601
 21
-676.2
 31
0.0
  0
LINE
  8
7
 10
244.493352
 20
-684.6
 30
0.0
 11
244.969060
 21
-684.9
 31
0.0
  0
LINE
  8
7
 10
247.532667
 20
-675.9
 30
0.0
 11
246.621350
 21
-680.3
 31
0.0
  0
LINE
  8
7
 10
250.528395
 20
-675.9
 30
0.0
 11
250.528395
 21
-669.3
 31
0.0
  0
LINE
  8
7
 10
243.960177
 20
-679.6
 30
0.0
 11
243.912037
 21
-680.4
 31
0.0
  0
LINE
  8
7
 10
243.912037
 20
-680.4
 30
0.0
 11
243.943216
 21
-681.1
 31
0.0
  0
LINE
  8
7
 10
244.049176
 20
-676.6
 30
0.0
 11
243.663679
 21
-677.1
 31
0.0
  0
LINE
  8
7
 10
243.663679
 20
-677.1
 30
0.0
 11
243.339236
 21
-677.7
 31
0.0
  0
LINE
  8
7
 10
243.339236
 20
-677.7
 30
0.0
 11
243.085210
 21
-678.4
 31
0.0
  0
LINE
  8
7
 10
243.085210
 20
-682.4
 30
0.0
 11
243.340629
 21
-683.1
 31
0.0
  0
LINE
  8
7
 10
243.340629
 20
-683.1
 30
0.0
 11
243.667099
 21
-683.7
 31
0.0
  0
LINE
  8
7
 10
243.667099
 20
-683.7
 30
0.0
 11
244.055109
 21
-684.2
 31
0.0
  0
LINE
  8
7
 10
244.623586
 20
-677.5
 30
0.0
 11
244.322830
 21
-678.1
 31
0.0
  0
LINE
  8
7
 10
244.322830
 20
-678.1
 30
0.0
 11
244.098862
 21
-678.9
 31
0.0
  0
LINE
  8
7
 10
244.098862
 20
-678.9
 30
0.0
 11
243.960177
 21
-679.6
 31
0.0
  0
LINE
  8
7
 10
244.958200
 20
-675.9
 30
0.0
 11
244.046882
 21
-680.3
 31
0.0
  0
LINE
  8
7
 10
243.943216
 20
-681.1
 30
0.0
 11
244.039214
 21
-681.8
 31
0.0
  0
LINE
  8
7
 10
244.039214
 20
-681.8
 30
0.0
 11
244.197441
 21
-682.4
 31
0.0
  0
LINE
  8
7
 10
244.197441
 20
-682.4
 30
0.0
 11
244.413633
 21
-683.0
 31
0.0
  0
LINE
  8
7
 10
244.413633
 20
-683.0
 30
0.0
 11
244.681959
 21
-683.5
 31
0.0
  0
LINE
  8
7
 10
244.943557
 20
-684.7
 30
0.0
 11
244.046882
 21
-680.3
 31
0.0
  0
LINE
  8
7
 10
244.484601
 20
-676.2
 30
0.0
 11
244.049176
 21
-676.6
 31
0.0
  0
LINE
  8
7
 10
244.046882
 20
-680.3
 30
0.0
 11
246.621350
 21
-680.3
 31
0.0
  0
LINE
  8
7
 10
244.055109
 20
-684.2
 30
0.0
 11
244.493352
 21
-684.6
 31
0.0
  0
ARC
  8
7
 10
249.528395
 20
-688.2
 30
0.0
 40
1.000000
 50
270.000000
 51
360.000000
  0
LINE
  8
7
 10
250.528395
 20
-685.8
 30
0.0
 11
250.528395
 21
-688.2
 31
0.0
  0
LINE
  8
7
 10
240.331231
 20
-685.8
 30
0.0
 11
240.331231
 21
-688.2
 31
0.0
  0
ARC
  8
7
 10
239.331231
 20
-688.2
 30
0.0
 40
1.000000
 50
270.000000
 51
360.000000
  0
LINE
  8
7
 10
240.331231
 20
-685.8
 30
0.0
 11
250.528395
 21
-685.8
 31
0.0
  0
LINE
  8
7
 10
238.136109
 20
-669.3
 30
0.0
 11
238.136109
 21
-689.2
 31
0.0
  0
LINE
  8
7
 10
250.528395
 20
-685.8
 30
0.0
 11
250.528395
 21
-684.7
 31
0.0
  0
LINE
  8
7
 10
240.331231
 20
-669.3
 30
0.0
 11
240.331231
 21
-685.8
 31
0.0
  0
LINE
  8
7
 10
243.085210
 20
-669.3
 30
0.0
 11
243.085210
 21
-685.8
 31
0.0
  0
LINE
  8
7
 10
241.863320
 20
-669.3
 30
0.0
 11
241.863320
 21
-685.8
 31
0.0
  0
LINE
  8
7
 10
233.297930
 20
-675.8
 30
0.0
 11
232.196508
 21
-677.2
 31
0.0
  0
LINE
  8
7
 10
232.196508
 20
-677.2
 30
0.0
 11
233.397379
 21
-677.2
 31
0.0
  0
LINE
  8
7
 10
230.487857
 20
-680.6
 30
0.0
 11
230.487857
 21
-680.0
 31
0.0
  0
LINE
  8
7
 10
231.295597
 20
-684.7
 30
0.0
 11
232.222023
 21
-680.3
 31
0.0
  0
LINE
  8
7
 10
231.300802
 20
-675.9
 30
0.0
 11
232.222023
 21
-680.3
 31
0.0
  0
LINE
  8
7
 10
234.498802
 20
-675.8
 30
0.0
 11
233.397379
 21
-677.2
 31
0.0
  0
LINE
  8
7
 10
233.297930
 20
-675.8
 30
0.0
 11
235.229877
 21
-675.8
 31
0.0
  0
LINE
  8
7
 10
227.954148
 20
-680.0
 30
0.0
 11
227.954148
 21
-680.6
 31
0.0
  0
LINE
  8
7
 10
229.479544
 20
-682.1
 30
0.0
 11
229.091732
 21
-682.1
 31
0.0
  0
LINE
  8
7
 10
229.091732
 20
-682.1
 30
0.0
 11
229.091732
 21
-680.6
 31
0.0
  0
LINE
  8
7
 10
229.091732
 20
-680.0
 30
0.0
 11
229.091732
 21
-678.4
 31
0.0
  0
LINE
  8
7
 10
229.091732
 20
-680.6
 30
0.0
 11
227.954148
 21
-680.6
 31
0.0
  0
LINE
  8
7
 10
229.091732
 20
-680.0
 30
0.0
 11
227.954148
 21
-680.0
 31
0.0
  0
LINE
  8
7
 10
227.890889
 20
-675.9
 30
0.0
 11
227.185154
 21
-675.5
 31
0.0
  0
LINE
  8
7
 10
229.091732
 20
-678.4
 30
0.0
 11
229.479544
 21
-678.4
 31
0.0
  0
LINE
  8
7
 10
229.479544
 20
-682.1
 30
0.0
 11
229.479544
 21
-680.6
 31
0.0
  0
LINE
  8
7
 10
229.479544
 20
-680.0
 30
0.0
 11
229.479544
 21
-678.4
 31
0.0
  0
LINE
  8
7
 10
225.290942
 20
-684.7
 30
0.0
 11
223.980123
 21
-680.3
 31
0.0
  0
LINE
  8
7
 10
225.298831
 20
-675.9
 30
0.0
 11
223.980123
 21
-680.3
 31
0.0
  0
LINE
  8
7
 10
223.980123
 20
-680.3
 30
0.0
 11
226.100708
 21
-680.3
 31
0.0
  0
LINE
  8
7
 10
226.552877
 20
-675.9
 30
0.0
 11
226.000775
 21
-675.7
 31
0.0
  0
LINE
  8
7
 10
226.000775
 20
-675.7
 30
0.0
 11
225.438393
 21
-675.7
 31
0.0
  0
LINE
  8
7
 10
225.438393
 20
-675.7
 30
0.0
 11
224.885778
 21
-675.9
 31
0.0
  0
LINE
  8
7
 10
224.885778
 20
-675.9
 30
0.0
 11
224.362627
 21
-676.2
 31
0.0
  0
LINE
  8
7
 10
224.362627
 20
-676.2
 30
0.0
 11
223.887589
 21
-676.7
 31
0.0
  0
LINE
  8
7
 10
223.887589
 20
-676.7
 30
0.0
 11
223.477597
 21
-677.3
 31
0.0
  0
LINE
  8
7
 10
223.616437
 20
-683.7
 30
0.0
 11
224.051614
 21
-684.2
 31
0.0
  0
LINE
  8
7
 10
224.051614
 20
-684.2
 30
0.0
 11
224.545991
 21
-684.7
 31
0.0
  0
LINE
  8
7
 10
224.545991
 20
-684.7
 30
0.0
 11
225.081943
 21
-684.9
 31
0.0
  0
LINE
  8
7
 10
225.081943
 20
-684.9
 30
0.0
 11
225.640368
 21
-685.0
 31
0.0
  0
LINE
  8
7
 10
225.640368
 20
-685.0
 30
0.0
 11
226.201360
 21
-685.0
 31
0.0
  0
LINE
  8
7
 10
224.992782
 20
-676.9
 30
0.0
 11
224.629314
 21
-677.4
 31
0.0
  0
LINE
  8
7
 10
224.629314
 20
-677.4
 30
0.0
 11
224.323986
 21
-678.0
 31
0.0
  0
LINE
  8
7
 10
224.323986
 20
-678.0
 30
0.0
 11
224.087547
 21
-678.6
 31
0.0
  0
LINE
  8
7
 10
224.087547
 20
-678.6
 30
0.0
 11
223.928324
 21
-679.4
 31
0.0
  0
LINE
  8
7
 10
223.928324
 20
-679.4
 30
0.0
 11
223.851925
 21
-680.1
 31
0.0
  0
LINE
  8
7
 10
223.851925
 20
-680.1
 30
0.0
 11
223.861038
 21
-680.9
 31
0.0
  0
LINE
  8
7
 10
223.861038
 20
-680.9
 30
0.0
 11
223.955343
 21
-681.7
 31
0.0
  0
LINE
  8
7
 10
223.955343
 20
-681.7
 30
0.0
 11
224.131520
 21
-682.4
 31
0.0
  0
LINE
  8
7
 10
224.131520
 20
-682.4
 30
0.0
 11
224.383365
 21
-683.0
 31
0.0
  0
LINE
  8
7
 10
224.383365
 20
-683.0
 30
0.0
 11
224.702008
 21
-683.6
 31
0.0
  0
LINE
  8
7
 10
224.702008
 20
-683.6
 30
0.0
 11
225.076230
 21
-684.0
 31
0.0
  0
LINE
  8
7
 10
224.156322
 20
-675.7
 30
0.0
 11
223.488406
 21
-676.2
 31
0.0
  0
LINE
  8
7
 10
227.419416
 20
-675.9
 30
0.0
 11
226.100708
 21
-680.3
 31
0.0
  0
LINE
  8
7
 10
227.411527
 20
-684.7
 30
0.0
 11
226.100708
 21
-680.3
 31
0.0
  0
LINE
  8
7
 10
226.201360
 20
-685.0
 30
0.0
 11
226.744922
 21
-684.7
 31
0.0
  0
LINE
  8
7
 10
229.324057
 20
-675.1
 30
0.0
 11
229.324057
 21
-675.9
 31
0.0
  0
LINE
  8
7
 10
227.185154
 20
-675.5
 30
0.0
 11
226.430601
 21
-675.2
 31
0.0
  0
LINE
  8
7
 10
226.430601
 20
-675.2
 30
0.0
 11
225.655178
 21
-675.2
 31
0.0
  0
LINE
  8
7
 10
225.655178
 20
-675.2
 30
0.0
 11
224.887609
 21
-675.3
 31
0.0
  0
LINE
  8
7
 10
224.887609
 20
-675.3
 30
0.0
 11
224.156322
 21
-675.7
 31
0.0
  0
LINE
  8
7
 10
230.487857
 20
-680.6
 30
0.0
 11
229.479544
 21
-680.6
 31
0.0
  0
LINE
  8
7
 10
230.487857
 20
-680.0
 30
0.0
 11
229.479544
 21
-680.0
 31
0.0
  0
LINE
  8
7
 10
231.295597
 20
-684.7
 30
0.0
 11
225.290942
 21
-684.7
 31
0.0
  0
LINE
  8
7
 10
231.300802
 20
-675.9
 30
0.0
 11
225.298831
 21
-675.9
 31
0.0
  0
ARC
  8
7
 10
234.229877
 20
-688.2
 30
0.0
 40
1.000000
 50
270.000000
 51
360.000000
  0
LINE
  8
7
 10
235.229877
 20
-685.8
 30
0.0
 11
235.229877
 21
-688.2
 31
0.0
  0
LINE
  8
7
 10
235.229877
 20
-669.3
 30
0.0
 11
235.229877
 21
-685.8
 31
0.0
  0
LINE
  8
7
 10
233.397379
 20
-677.2
 30
0.0
 11
233.397379
 21
-685.8
 31
0.0
  0
LINE
  8
7
 10
232.196508
 20
-677.2
 30
0.0
 11
232.196508
 21
-685.8
 31
0.0
  0
LINE
  8
7
 10
223.646356
 20
-684.7
 30
0.0
 11
224.332360
 21
-685.2
 31
0.0
  0
LINE
  8
7
 10
224.332360
 20
-685.2
 30
0.0
 11
225.075215
 21
-685.5
 31
0.0
  0
LINE
  8
7
 10
225.075215
 20
-685.5
 30
0.0
 11
225.847403
 21
-685.6
 31
0.0
  0
LINE
  8
7
 10
225.847403
 20
-685.6
 30
0.0
 11
226.620324
 21
-685.5
 31
0.0
  0
LINE
  8
7
 10
226.620324
 20
-685.5
 30
0.0
 11
227.365349
 21
-685.2
 31
0.0
  0
LINE
  8
7
 10
227.365349
 20
-685.2
 30
0.0
 11
228.054881
 21
-684.7
 31
0.0
  0
LINE
  8
7
 10
244.734208
 20
-689.8
 30
0.0
 11
235.534208
 21
-689.8
 31
0.0
  0
LINE
  8
7
 10
235.534209
 20
-689.8
 30
0.0
 11
235.534209
 21
-693.4
 31
0.0
  0
LINE
  8
7
 10
235.534214
 20
-693.4
 30
0.0
 11
236.234213
 21
-693.8
 31
0.0
  0
LINE
  8
7
 10
236.234209
 20
-693.8
 30
0.0
 11
244.034207
 21
-693.8
 31
0.0
  0
LINE
  8
7
 10
244.034203
 20
-693.8
 30
0.0
 11
244.734202
 21
-693.4
 31
0.0
  0
LINE
  8
7
 10
244.734207
 20
-693.4
 30
0.0
 11
244.734207
 21
-689.8
 31
0.0
  0
LINE
  8
7
 10
242.434208
 20
-693.4
 30
0.0
 11
242.434208
 21
-689.8
 31
0.0
  0
LINE
  8
7
 10
237.834208
 20
-693.4
 30
0.0
 11
237.834208
 21
-689.8
 31
0.0
  0
ARC
  8
7
 10
243.584207
 20
-691.9
 30
0.0
 40
1.853135
 50
231.642265
 51
270.0
  0
ARC
  8
7
 10
240.134208
 20
-686.9
 30
0.0
 40
6.812498
 50
250.268330
 51
289.731580
  0
ARC
  8
7
 10
236.684209
 20
-691.9
 30
0.0
 40
1.853133
 50
270.0
 51
308.357670
  0
LINE
  8
7
 10
244.734208
 20
-689.8
 30
0.0
 11
245.134208
 21
-689.8
 31
0.0
  0
LINE
  8
7
 10
245.134208
 20
-689.8
 30
0.0
 11
245.134208
 21
-689.2
 31
0.0
  0
LINE
  8
7
 10
245.134208
 20
-689.2
 30
0.0
 11
235.134208
 21
-689.2
 31
0.0
  0
LINE
  8
7
 10
235.134208
 20
-689.2
 30
0.0
 11
235.134208
 21
-689.8
 31
0.0
  0
LINE
  8
7
 10
235.134208
 20
-689.8
 30
0.0
 11
235.534208
 21
-689.8
 31
0.0
  0
POINT
  8
7
 10
240.134208
 20
-689.2
 30
0.0
  0
LINE
  8
7
 10
233.475009
 20
-644.7
 30
0.0
 11
233.475009
 21
-669.3
 31
0.0
  0
LINE
  8
7
 10
247.634208
 20
-669.3
 30
0.0
 11
247.634208
 21
-644.6
 31
0.0
  0
LINE
  8
7
 10
212.634208
 20
-643.2
 30
0.0
 11
212.634208
 21
-635.7
 31
0.0
  0
ARC
  8
7
 10
214.134208
 20
-643.2
 30
0.0
 40
1.500000
 50
180.000000
 51
270.000000
  0
ARC
  8
7
 10
208.634208
 20
-634.7
 30
0.0
 40
1.000000
 50
180.000000
 51
270.000000
  0
ARC
  8
7
 10
208.634208
 20
-634.7
 30
0.0
 40
3.500000
 50
180.000000
 51
270.000000
  0
LINE
  8
7
 10
212.634208
 20
-638.2
 30
0.0
 11
208.634208
 21
-638.2
 31
0.0
  0
LINE
  8
7
 10
221.005722
 20
-676.4
 30
0.0
 11
221.415136
 21
-676.4
 31
0.0
  0
LINE
  8
7
 10
222.908366
 20
-678.8
 30
0.0
 11
222.769418
 21
-679.6
 31
0.0
  0
LINE
  8
7
 10
222.769418
 20
-679.6
 30
0.0
 11
222.735373
 21
-680.5
 31
0.0
  0
LINE
  8
7
 10
222.735373
 20
-680.5
 30
0.0
 11
222.807444
 21
-681.4
 31
0.0
  0
LINE
  8
7
 10
222.908599
 20
-676.9
 30
0.0
 11
222.438378
 21
-677.7
 31
0.0
  0
LINE
  8
7
 10
222.438378
 20
-677.7
 30
0.0
 11
222.095160
 21
-678.5
 31
0.0
  0
LINE
  8
7
 10
222.095160
 20
-678.5
 30
0.0
 11
221.891658
 21
-679.5
 31
0.0
  0
LINE
  8
7
 10
221.891658
 20
-679.5
 30
0.0
 11
221.835409
 21
-680.5
 31
0.0
  0
LINE
  8
7
 10
221.835409
 20
-680.5
 30
0.0
 11
221.928497
 21
-681.5
 31
0.0
  0
LINE
  8
7
 10
221.928497
 20
-681.5
 30
0.0
 11
222.167473
 21
-682.5
 31
0.0
  0
LINE
  8
7
 10
222.167473
 20
-682.5
 30
0.0
 11
222.543487
 21
-683.3
 31
0.0
  0
LINE
  8
7
 10
221.415136
 20
-676.4
 30
0.0
 11
221.415136
 21
-675.1
 31
0.0
  0
LINE
  8
7
 10
219.181765
 20
-679.3
 30
0.0
 11
219.181765
 21
-669.3
 31
0.0
  0
LINE
  8
7
 10
216.152926
 20
-679.3
 30
0.0
 11
216.152926
 21
-669.3
 31
0.0
  0
ARC
  8
7
 10
218.181765
 20
-688.2
 30
0.0
 40
1.000000
 50
270.000000
 51
360.000000
  0
LINE
  8
7
 10
219.181765
 20
-688.2
 30
0.0
 11
219.181765
 21
-679.3
 31
0.0
  0
LINE
  8
7
 10
216.152926
 20
-689.2
 30
0.0
 11
216.152926
 21
-679.3
 31
0.0
  0
LINE
  8
7
 10
221.005722
 20
-685.8
 30
0.0
 11
221.005722
 21
-676.4
 31
0.0
  0
LINE
  8
7
 62
     4
  6
DASHED
 10
213.134208
 20
-689.2
 30
0.0
 11
213.134208
 21
-644.3
 31
0.0
  0
LINE
  8
7
 10
219.181765
 20
-685.8
 30
0.0
 11
235.229877
 21
-685.8
 31
0.0
  0
LINE
  8
7
 10
229.324057
 20
-675.1
 30
0.0
 11
221.415136
 21
-675.1
 31
0.0
  0
LINE
  8
7
 10
216.152926
 20
-669.3
 30
0.0
 11
250.528395
 21
-669.3
 31
0.0
  0
LINE
  8
7
 10
223.477597
 20
-677.3
 30
0.0
 11
223.147264
 21
-678.0
 31
0.0
  0
LINE
  8
7
 10
223.147264
 20
-678.0
 30
0.0
 11
222.908366
 21
-678.8
 31
0.0
  0
LINE
  8
7
 10
222.807444
 20
-681.4
 30
0.0
 11
222.983064
 21
-682.2
 31
0.0
  0
LINE
  8
7
 10
222.983064
 20
-682.2
 30
0.0
 11
223.255970
 21
-683.0
 31
0.0
  0
LINE
  8
7
 10
223.255970
 20
-683.0
 30
0.0
 11
223.616437
 21
-683.7
 31
0.0
  0
LINE
  8
7
 10
223.488406
 20
-676.2
 30
0.0
 11
222.908599
 21
-676.9
 31
0.0
  0
LINE
  8
7
 10
222.543487
 20
-683.3
 30
0.0
 11
223.042610
 21
-684.1
 31
0.0
  0
LINE
  8
7
 10
223.042610
 20
-684.1
 30
0.0
 11
223.646356
 21
-684.7
 31
0.0
  0
LINE
  8
7
 10
247.134208
 20
-644.7
 30
0.0
 11
214.134208
 21
-644.7
 31
0.0
  0
LINE
  8
7
 10
248.634208
 20
-635.7
 30
0.0
 11
208.634208
 21
-635.7
 31
0.0
  0
LINE
  8
7
 10
251.701810
 20
-684.7
 30
0.0
 11
244.943557
 21
-684.7
 31
0.0
  0
LINE
  8
7
 10
244.958200
 20
-675.9
 30
0.0
 11
251.707015
 21
-675.9
 31
0.0
  0
POINT
  8
7
 10
253.131607
 20
-680.3
 30
0.0
  0
POINT
  8
7
 10
247.634208
 20
-689.2
 30
0.0
  0
ARC
  8
7
 10
199.834208
 20
-623.7
 30
0.0
 40
14.0
 50
343.927160
 51
376.072820
  0
POINT
  8
7
 10
207.634208
 20
-623.7
 30
0.0
  0
LINE
  8
7
 10
207.634208
 20
-629.4
 30
0.0
 11
207.634208
 21
-617.9
 31
0.0
  0
LINE
  8
7
 10
208.434208
 20
-629.4
 30
0.0
 11
208.434208
 21
-617.9
 31
0.0
  0
LINE
  8
7
 10
208.434208
 20
-629.4
 30
0.0
 11
207.634208
 21
-629.4
 31
0.0
  0
LINE
  8
7
 10
208.434208
 20
-617.9
 30
0.0
 11
207.634208
 21
-617.9
 31
0.0
  0
LINE
  8
7
 10
209.934208
 20
-628.7
 30
0.0
 11
208.434208
 21
-628.7
 31
0.0
  0
LINE
  8
7
 10
208.434208
 20
-618.6
 30
0.0
 11
209.934208
 21
-618.6
 31
0.0
  0
LINE
  8
7
 10
209.934208
 20
-628.9
 30
0.0
 11
209.934208
 21
-618.4
 31
0.0
  0
LINE
  8
7
 10
211.461224
 20
-628.9
 30
0.0
 11
209.934208
 21
-628.9
 31
0.0
  0
LINE
  8
7
 10
211.461224
 20
-618.4
 30
0.0
 11
209.934208
 21
-618.4
 31
0.0
  0
ARC
  8
7
 10
211.461224
 20
-627.0
 30
0.0
 40
1.900000
 50
270.0
 51
343.927110
  0
ARC
  8
7
 10
211.461224
 20
-620.3
 30
0.0
 40
1.900000
 50
16.072820
 51
90.0
  0
LINE
  8
7
 10
209.934207
 20
-623.7
 30
0.0
 11
208.434208
 21
-624.5
 31
0.0
  0
LINE
  8
7
 10
209.934207
 20
-622.8
 30
0.0
 11
208.434208
 21
-623.7
 31
0.0
  0
LINE
  8
7
 10
207.634208
 20
-634.7
 30
0.0
 11
207.634208
 21
-608.7
 31
0.0
  0
LINE
  8
7
 10
205.134208
 20
-634.7
 30
0.0
 11
205.134208
 21
-608.7
 31
0.0
  0
POINT
  8
7
 10
248.634208
 20
-635.7
 30
0.0
  0
LINE
  8
7
 10
190.634208
 20
-608.7
 30
0.0
 11
193.134208
 21
-608.7
 31
0.0
  0
ARC
  8
7
 10
189.634208
 20
-634.7
 30
0.0
 40
1.000000
 50
270.000000
 51
360.000000
  0
ARC
  8
7
 10
189.634208
 20
-634.7
 30
0.0
 40
3.500000
 50
270.000000
 51
360.000000
  0
LINE
  8
7
 10
185.634208
 20
-643.2
 30
0.0
 11
185.634208
 21
-635.7
 31
0.0
  0
LINE
  8
7
 10
185.634208
 20
-638.2
 30
0.0
 11
189.634208
 21
-638.2
 31
0.0
  0
ARC
  8
7
 10
184.134208
 20
-643.2
 30
0.0
 40
1.500000
 50
270.000000
 51
360.000000
  0
LINE
  8
7
 62
     4
  6
DASHED
 10
185.134208
 20
-689.2
 30
0.0
 11
185.134208
 21
-644.3
 31
0.0
  0
POINT
  8
7
 10
158.134208
 20
-635.7
 30
0.0
  0
LINE
  8
7
 10
162.634208
 20
-633.6
 30
0.0
 11
153.634208
 21
-633.6
 31
0.0
  0
LINE
  8
7
 10
153.634208
 20
-633.6
 30
0.0
 11
153.634208
 21
-632.3
 31
0.0
  0
LINE
  8
7
 10
162.634208
 20
-633.6
 30
0.0
 11
162.634208
 21
-632.3
 31
0.0
  0
LINE
  8
7
 10
153.959210
 20
-634.9
 30
0.0
 11
153.959210
 21
-633.6
 31
0.0
  0
LINE
  8
7
 10
162.309206
 20
-634.9
 30
0.0
 11
162.309206
 21
-633.6
 31
0.0
  0
POINT
  8
7
 10
158.134208
 20
-635.7
 30
0.0
  0
LINE
  8
7
 10
158.134208
 20
-635.7
 30
0.0
 11
153.134208
 21
-635.7
 31
0.0
  0
LINE
  8
7
 10
153.134208
 20
-634.9
 30
0.0
 11
163.134208
 21
-634.9
 31
0.0
  0
LINE
  8
7
 10
163.134208
 20
-635.7
 30
0.0
 11
158.134208
 21
-635.7
 31
0.0
  0
LINE
  8
7
 10
153.134208
 20
-634.9
 30
0.0
 11
153.134208
 21
-635.7
 31
0.0
  0
LINE
  8
7
 10
163.134208
 20
-635.7
 30
0.0
 11
163.134208
 21
-634.9
 31
0.0
  0
LINE
  8
7
 10
158.134208
 20
-633.6
 30
0.0
 11
157.383655
 21
-634.9
 31
0.0
  0
LINE
  8
7
 10
158.884761
 20
-633.6
 30
0.0
 11
158.134208
 21
-634.9
 31
0.0
  0
LINE
  8
7
 10
150.134208
 20
-643.2
 30
0.0
 11
150.134208
 21
-635.7
 31
0.0
  0
ARC
  8
7
 10
151.634208
 20
-643.2
 30
0.0
 40
1.500000
 50
180.000000
 51
270.000000
  0
LINE
  8
7
 10
153.534208
 20
-690.2
 30
0.0
 11
162.734208
 21
-690.2
 31
0.0
  0
LINE
  8
7
 10
162.734207
 20
-690.2
 30
0.0
 11
162.734207
 21
-693.8
 31
0.0
  0
LINE
  8
7
 10
162.734202
 20
-693.8
 30
0.0
 11
162.034203
 21
-694.2
 31
0.0
  0
LINE
  8
7
 10
162.034207
 20
-694.2
 30
0.0
 11
154.234209
 21
-694.2
 31
0.0
  0
LINE
  8
7
 10
154.234213
 20
-694.2
 30
0.0
 11
153.534214
 21
-693.8
 31
0.0
  0
LINE
  8
7
 10
153.534209
 20
-693.8
 30
0.0
 11
153.534209
 21
-690.2
 31
0.0
  0
LINE
  8
7
 10
155.834208
 20
-693.8
 30
0.0
 11
155.834208
 21
-690.2
 31
0.0
  0
LINE
  8
7
 10
160.434208
 20
-693.8
 30
0.0
 11
160.434208
 21
-690.2
 31
0.0
  0
LINE
  8
7
 10
153.534208
 20
-690.2
 30
0.0
 11
153.134208
 21
-690.2
 31
0.0
  0
LINE
  8
7
 10
153.134208
 20
-690.2
 30
0.0
 11
153.134208
 21
-689.2
 31
0.0
  0
LINE
  8
7
 10
153.134208
 20
-689.2
 30
0.0
 11
163.134208
 21
-689.2
 31
0.0
  0
LINE
  8
7
 10
163.134208
 20
-689.2
 30
0.0
 11
163.134208
 21
-690.2
 31
0.0
  0
LINE
  8
7
 10
163.134208
 20
-690.2
 30
0.0
 11
162.734208
 21
-690.2
 31
0.0
  0
POINT
  8
7
 10
158.134208
 20
-689.2
 30
0.0
  0
LINE
  8
7
 10
162.634208
 20
-679.3
 30
0.0
 11
162.634208
 21
-689.2
 31
0.0
  0
ARC
  8
7
 10
152.634208
 20
-687.2
 30
0.0
 40
2.000000
 50
180.000000
 51
270.000000
  0
LINE
  8
7
 10
150.634208
 20
-679.3
 30
0.0
 11
150.634208
 21
-687.2
 31
0.0
  0
LINE
  8
7
 10
150.634208
 20
-679.3
 30
0.0
 11
162.634208
 21
-679.3
 31
0.0
  0
LINE
  8
7
 10
152.634208
 20
-689.2
 30
0.0
 11
249.528395
 21
-689.2
 31
0.0
  0
LINE
  8
7
 10
150.634208
 20
-679.3
 30
0.0
 11
150.634208
 21
-644.3
 31
0.0
  0
LINE
  8
7
 10
151.634208
 20
-644.7
 30
0.0
 11
184.134208
 21
-644.7
 31
0.0
  0
LINE
  8
7
 10
150.134208
 20
-635.7
 30
0.0
 11
189.634208
 21
-635.7
 31
0.0
  0
POINT
  8
7
 10
155.634201
 20
-695.7
 30
0.0
  0
POINT
  8
7
 10
152.634201
 20
-689.2
 30
0.0
  0
LINE
  8
7
 10
187.534208
 20
-617.9
 30
0.0
 11
187.534208
 21
-629.4
 31
0.0
  0
LINE
  8
7
 10
187.534208
 20
-629.4
 30
0.0
 11
183.034208
 21
-629.4
 31
0.0
  0
LINE
  8
7
 10
183.034199
 20
-629.4
 30
0.0
 11
182.534199
 21
-628.6
 31
0.0
  0
LINE
  8
7
 10
182.534211
 20
-628.6
 30
0.0
 11
182.534211
 21
-618.8
 31
0.0
  0
LINE
  8
7
 10
182.534199
 20
-618.8
 30
0.0
 11
183.034199
 21
-617.9
 31
0.0
  0
LINE
  8
7
 10
183.034208
 20
-617.9
 30
0.0
 11
187.534208
 21
-617.9
 31
0.0
  0
LINE
  8
7
 10
187.534208
 20
-620.8
 30
0.0
 11
183.034208
 21
-620.8
 31
0.0
  0
LINE
  8
7
 10
187.534208
 20
-617.9
 30
0.0
 11
187.534208
 21
-617.6
 31
0.0
  0
LINE
  8
7
 10
187.534208
 20
-617.6
 30
0.0
 11
189.034208
 21
-617.6
 31
0.0
  0
LINE
  8
7
 10
189.034206
 20
-617.6
 30
0.0
 11
189.034206
 21
-629.8
 31
0.0
  0
LINE
  8
7
 10
189.034208
 20
-629.8
 30
0.0
 11
187.534208
 21
-629.8
 31
0.0
  0
LINE
  8
7
 10
187.534208
 20
-629.8
 30
0.0
 11
187.534208
 21
-629.4
 31
0.0
  0
LINE
  8
7
 10
189.034207
 20
-623.7
 30
0.0
 11
187.534209
 21
-623.2
 31
0.0
  0
LINE
  8
7
 10
189.034209
 20
-624.2
 30
0.0
 11
187.534208
 21
-623.7
 31
0.0
  0
LINE
  8
7
 10
189.034208
 20
-617.9
 30
0.0
 11
190.634208
 21
-617.9
 31
0.0
  0
LINE
  8
7
 10
190.634208
 20
-617.9
 30
0.0
 11
190.634208
 21
-629.4
 31
0.0
  0
LINE
  8
7
 10
190.634208
 20
-629.4
 30
0.0
 11
189.034208
 21
-629.4
 31
0.0
  0
LINE
  8
7
 10
189.034208
 20
-629.4
 30
0.0
 11
189.034208
 21
-629.8
 31
0.0
  0
LINE
  8
7
 10
187.534208
 20
-626.5
 30
0.0
 11
183.034208
 21
-626.5
 31
0.0
  0
POINT
  8
7
 10
190.634208
 20
-623.7
 30
0.0
  0
LINE
  8
7
 10
193.134208
 20
-634.7
 30
0.0
 11
193.134208
 21
-608.7
 31
0.0
  0
LINE
  8
7
 10
190.634208
 20
-634.7
 30
0.0
 11
190.634208
 21
-608.7
 31
0.0
  0
POINT
  8
7
 10
152.634201
 20
-689.2
 30
0.0
  0
POINT
  8
7
 10
190.634207
 20
-608.7
 30
0.0
  0
LINE
  8
7
 10
185.634208
 20
-638.6
 30
0.0
 11
212.634208
 21
-638.6
 31
0.0
  0
LINE
  8
7
 10
193.134208
 20
-626.7
 30
0.0
 11
205.134208
 21
-626.7
 31
0.0
  0
LINE
  8
7
 10
193.134208
 20
-620.7
 30
0.0
 11
205.134208
 21
-620.7
 31
0.0
  0
POINT
  8
7
 10
150.634200
 20
-687.2
 30
0.0
  0
POINT
  8
7
 10
247.634208
 20
-689.2
 30
0.0
  0
LINE
  8
7
 10
335.132352
 20
-685.8
 30
0.0
 11
329.770732
 21
-685.8
 31
0.0
  0
LINE
  8
7
 10
333.252962
 20
-685.8
 30
0.0
 11
333.252962
 21
-675.8
 31
0.0
  0
LINE
  8
7
 10
354.502092
 20
-669.3
 30
0.0
 11
329.770732
 21
-669.3
 31
0.0
  0
LINE
  8
7
 10
335.132352
 20
-675.8
 30
0.0
 11
329.770732
 21
-675.8
 31
0.0
  0
POINT
  8
7
 10
334.810679
 20
-639.2
 30
0.0
  0
POINT
  8
7
 10
324.813283
 20
-680.3
 30
0.0
  0
ARC
  8
7
 10
460.360683
 20
-692.3
 30
0.0
 40
1.853133
 50
270.0
 51
308.357670
  0
ARC
  8
7
 10
463.810682
 20
-687.3
 30
0.0
 40
6.812498
 50
250.268330
 51
289.731580
  0
ARC
  8
7
 10
467.260681
 20
-692.3
 30
0.0
 40
1.853135
 50
231.642265
 51
270.0
  0
ARC
  8
7
 10
184.850626
 20
-619.3
 30
0.0
 40
2.316419
 50
180.000000
 51
218.357735
  0
ARC
  8
7
 10
191.049828
 20
-623.7
 30
0.0
 40
8.515623
 50
160.268420
 51
199.731670
  0
ARC
  8
7
 10
184.850623
 20
-628.0
 30
0.0
 40
2.316416
 50
141.642330
 51
180.0
  0
ARC
  8
7
 10
158.134208
 20
-687.3
 30
0.0
 40
6.812498
 50
250.268330
 51
289.731580
  0
ARC
  8
7
 10
154.684209
 20
-692.3
 30
0.0
 40
1.853133
 50
270.0
 51
308.357670
  0
ARC
  8
7
 10
161.584207
 20
-692.3
 30
0.0
 40
1.853135
 50
231.642265
 51
270.0
  0
CIRCLE
  8
7
 10
350.310682
 20
-623.7
 30
0.0
 40
5.249999
  0
CIRCLE
  8
7
 10
350.310682
 20
-623.7
 30
0.0
 40
5.249999
  0
CIRCLE
  8
7
 10
350.310682
 20
-623.7
 30
0.0
 40
5.749999
  0
LINE
  8
4
 10
350.910682
 20
-625.0
 30
0.0
 11
350.910682
 21
-626.7
 31
0.0
  0
ARC
  8
4
 10
351.660682
 20
-625.0
 30
0.0
 40
0.750000
 50
90.0
 51
180.0
  0
LINE
  8
4
 10
353.310682
 20
-624.3
 30
0.0
 11
351.660682
 21
-624.3
 31
0.0
  0
LINE
  8
4
 10
353.310682
 20
-623.1
 30
0.0
 11
353.310682
 21
-624.3
 31
0.0
  0
LINE
  8
4
 10
353.310682
 20
-623.1
 30
0.0
 11
351.660682
 21
-623.1
 31
0.0
  0
ARC
  8
4
 10
351.660682
 20
-622.3
 30
0.0
 40
0.750000
 50
180.0
 51
270.0
  0
LINE
  8
4
 10
350.910682
 20
-622.3
 30
0.0
 11
350.910682
 21
-620.7
 31
0.0
  0
LINE
  8
4
 10
350.910682
 20
-620.7
 30
0.0
 11
349.710682
 21
-620.7
 31
0.0
  0
LINE
  8
4
 10
349.710682
 20
-622.3
 30
0.0
 11
349.710682
 21
-620.7
 31
0.0
  0
ARC
  8
4
 10
348.960682
 20
-622.3
 30
0.0
 40
0.750000
 50
270.0
 51
360.0
  0
LINE
  8
4
 10
348.960682
 20
-623.1
 30
0.0
 11
347.310682
 21
-623.1
 31
0.0
  0
LINE
  8
4
 10
347.310682
 20
-623.1
 30
0.0
 11
347.310682
 21
-624.3
 31
0.0
  0
LINE
  8
4
 10
348.960682
 20
-624.3
 30
0.0
 11
347.310682
 21
-624.3
 31
0.0
  0
ARC
  8
4
 10
348.960682
 20
-625.0
 30
0.0
 40
0.750000
 50
0.0
 51
90.0
  0
LINE
  8
4
 10
349.710682
 20
-625.0
 30
0.0
 11
349.710682
 21
-626.7
 31
0.0
  0
LINE
  8
4
 10
350.910682
 20
-626.7
 30
0.0
 11
349.710682
 21
-626.7
 31
0.0
  0
LINE
  8
4
 10
461.310682
 20
-623.1
 30
0.0
 11
461.310682
 21
-624.3
 31
0.0
  0
LINE
  8
4
 10
461.310682
 20
-624.3
 30
0.0
 11
459.660682
 21
-624.3
 31
0.0
  0
ARC
  8
4
 10
459.660682
 20
-625.0
 30
0.0
 40
0.750000
 50
90.0
 51
180.0
  0
LINE
  8
4
 10
458.910682
 20
-625.0
 30
0.0
 11
458.910682
 21
-626.7
 31
0.0
  0
LINE
  8
4
 10
458.910682
 20
-626.7
 30
0.0
 11
457.710682
 21
-626.7
 31
0.0
  0
LINE
  8
4
 10
457.710682
 20
-625.0
 30
0.0
 11
457.710682
 21
-626.7
 31
0.0
  0
ARC
  8
4
 10
456.960682
 20
-625.0
 30
0.0
 40
0.750000
 50
0.0
 51
90.0
  0
LINE
  8
4
 10
456.960682
 20
-624.3
 30
0.0
 11
455.310682
 21
-624.3
 31
0.0
  0
LINE
  8
4
 10
455.310682
 20
-623.1
 30
0.0
 11
455.310682
 21
-624.3
 31
0.0
  0
LINE
  8
4
 10
456.960682
 20
-623.1
 30
0.0
 11
455.310682
 21
-623.1
 31
0.0
  0
ARC
  8
4
 10
456.960682
 20
-622.3
 30
0.0
 40
0.750000
 50
270.0
 51
360.0
  0
LINE
  8
4
 10
457.710682
 20
-622.3
 30
0.0
 11
457.710682
 21
-620.7
 31
0.0
  0
LINE
  8
4
 10
458.910682
 20
-620.7
 30
0.0
 11
457.710682
 21
-620.7
 31
0.0
  0
LINE
  8
4
 10
458.910682
 20
-622.3
 30
0.0
 11
458.910682
 21
-620.7
 31
0.0
  0
ARC
  8
4
 10
459.660682
 20
-622.3
 30
0.0
 40
0.750000
 50
180.0
 51
270.0
  0
LINE
  8
4
 10
461.310682
 20
-623.1
 30
0.0
 11
459.660682
 21
-623.1
 31
0.0
  0
POLYLINE
  8
0
 66
     1
 70
     0
  0
VERTEX
  8
0
 10
193.134208
 20
-595.3
 30
0.0
  0
VERTEX
  8
0
 10
193.338362
 20
-595.2
 30
0.0
  0
VERTEX
  8
0
 10
193.546166
 20
-595.0
 30
0.0
  0
VERTEX
  8
0
 10
193.761271
 20
-594.9
 30
0.0
  0
VERTEX
  8
0
 10
193.987327
 20
-594.7
 30
0.0
  0
VERTEX
  8
0
 10
194.227984
 20
-594.6
 30
0.0
  0
VERTEX
  8
0
 10
194.486892
 20
-594.5
 30
0.0
  0
VERTEX
  8
0
 10
194.767702
 20
-594.4
 30
0.0
  0
VERTEX
  8
0
 10
195.074065
 20
-594.3
 30
0.0
  0
VERTEX
  8
0
 10
195.409630
 20
-594.3
 30
0.0
  0
VERTEX
  8
0
 10
195.778048
 20
-594.3
 30
0.0
  0
VERTEX
  8
0
 10
196.182969
 20
-594.3
 30
0.0
  0
VERTEX
  8
0
 10
196.626271
 20
-594.3
 30
0.0
  0
VERTEX
  8
0
 10
197.102745
 20
-594.4
 30
0.0
  0
VERTEX
  8
0
 10
197.605408
 20
-594.5
 30
0.0
  0
VERTEX
  8
0
 10
198.127280
 20
-594.6
 30
0.0
  0
VERTEX
  8
0
 10
198.661379
 20
-594.7
 30
0.0
  0
VERTEX
  8
0
 10
199.200722
 20
-594.8
 30
0.0
  0
VERTEX
  8
0
 10
199.738328
 20
-594.9
 30
0.0
  0
VERTEX
  8
0
 10
200.267215
 20
-595.1
 30
0.0
  0
VERTEX
  8
0
 10
200.780402
 20
-595.2
 30
0.0
  0
VERTEX
  8
0
 10
201.270907
 20
-595.3
 30
0.0
  0
VERTEX
  8
0
 10
201.731748
 20
-595.4
 30
0.0
  0
VERTEX
  8
0
 10
202.157662
 20
-595.4
 30
0.0
  0
VERTEX
  8
0
 10
202.550262
 20
-595.5
 30
0.0
  0
VERTEX
  8
0
 10
202.912880
 20
-595.5
 30
0.0
  0
VERTEX
  8
0
 10
203.248846
 20
-595.5
 30
0.0
  0
VERTEX
  8
0
 10
203.561492
 20
-595.5
 30
0.0
  0
VERTEX
  8
0
 10
203.854149
 20
-595.5
 30
0.0
  0
VERTEX
  8
0
 10
204.130149
 20
-595.5
 30
0.0
  0
VERTEX
  8
0
 10
204.392824
 20
-595.4
 30
0.0
  0
VERTEX
  8
0
 10
204.645504
 20
-595.4
 30
0.0
  0
VERTEX
  8
0
 10
204.891522
 20
-595.4
 30
0.0
  0
VERTEX
  8
0
 10
205.134208
 20
-595.3
 30
0.0
  0
SEQEND
  8
0
  0
POLYLINE
  8
0
 66
     1
 70
     0
  0
VERTEX
  8
0
 10
354.310682
 20
-599.1
 30
0.0
  0
VERTEX
  8
0
 10
354.827319
 20
-598.6
 30
0.0
  0
VERTEX
  8
0
 10
355.399070
 20
-598.0
 30
0.0
  0
VERTEX
  8
0
 10
356.081046
 20
-597.5
 30
0.0
  0
VERTEX
  8
0
 10
356.928363
 20
-597.0
 30
0.0
  0
VERTEX
  8
0
 10
357.996132
 20
-596.6
 30
0.0
  0
VERTEX
  8
0
 10
359.339467
 20
-596.3
 30
0.0
  0
VERTEX
  8
0
 10
361.013481
 20
-596.0
 30
0.0
  0
VERTEX
  8
0
 10
363.073287
 20
-595.7
 30
0.0
  0
VERTEX
  8
0
 10
365.573998
 20
-595.6
 30
0.0
  0
VERTEX
  8
0
 10
368.570728
 20
-595.6
 30
0.0
  0
VERTEX
  8
0
 10
372.118590
 20
-595.7
 30
0.0
  0
VERTEX
  8
0
 10
376.246380
 20
-596.0
 30
0.0
  0
VERTEX
  8
0
 10
380.877625
 20
-596.3
 30
0.0
  0
VERTEX
  8
0
 10
385.909536
 20
-596.8
 30
0.0
  0
VERTEX
  8
0
 10
391.239324
 20
-597.3
 30
0.0
  0
VERTEX
  8
0
 10
396.764198
 20
-597.8
 30
0.0
  0
VERTEX
  8
0
 10
402.381370
 20
-598.4
 30
0.0
  0
VERTEX
  8
0
 10
407.988050
 20
-598.9
 30
0.0
  0
VERTEX
  8
0
 10
413.481448
 20
-599.5
 30
0.0
  0
VERTEX
  8
0
 10
418.758776
 20
-599.9
 30
0.0
  0
VERTEX
  8
0
 10
423.717243
 20
-600.4
 30
0.0
  0
VERTEX
  8
0
 10
428.254059
 20
-600.7
 30
0.0
  0
VERTEX
  8
0
 10
432.291514
 20
-600.9
 30
0.0
  0
VERTEX
  8
0
 10
435.852206
 20
-601.0
 30
0.0
  0
VERTEX
  8
0
 10
438.983811
 20
-601.0
 30
0.0
  0
VERTEX
  8
0
 10
441.734006
 20
-601.0
 30
0.0
  0
VERTEX
  8
0
 10
444.150466
 20
-600.8
 30
0.0
  0
VERTEX
  8
0
 10
446.280868
 20
-600.6
 30
0.0
  0
VERTEX
  8
0
 10
448.172889
 20
-600.4
 30
0.0
  0
VERTEX
  8
0
 10
449.874204
 20
-600.1
 30
0.0
  0
VERTEX
  8
0
 10
451.432491
 20
-599.8
 30
0.0
  0
VERTEX
  8
0
 10
452.895424
 20
-599.4
 30
0.0
  0
VERTEX
  8
0
 10
454.310682
 20
-599.1
 30
0.0
  0
SEQEND
  8
0
  0
POLYLINE
  8
0
 66
     1
 70
     0
  0
VERTEX
  8
0
 10
354.310682
 20
-702.1
 30
0.0
  0
VERTEX
  8
0
 10
354.827319
 20
-701.5
 30
0.0
  0
VERTEX
  8
0
 10
355.399070
 20
-701.0
 30
0.0
  0
VERTEX
  8
0
 10
356.081046
 20
-700.5
 30
0.0
  0
VERTEX
  8
0
 10
356.928363
 20
-700.0
 30
0.0
  0
VERTEX
  8
0
 10
357.996132
 20
-699.6
 30
0.0
  0
VERTEX
  8
0
 10
359.339467
 20
-699.2
 30
0.0
  0
VERTEX
  8
0
 10
361.013481
 20
-698.9
 30
0.0
  0
VERTEX
  8
0
 10
363.073287
 20
-698.7
 30
0.0
  0
VERTEX
  8
0
 10
365.573998
 20
-698.6
 30
0.0
  0
VERTEX
  8
0
 10
368.570728
 20
-698.6
 30
0.0
  0
VERTEX
  8
0
 10
372.118590
 20
-698.7
 30
0.0
  0
VERTEX
  8
0
 10
376.246380
 20
-698.9
 30
0.0
  0
VERTEX
  8
0
 10
380.877625
 20
-699.3
 30
0.0
  0
VERTEX
  8
0
 10
385.909536
 20
-699.7
 30
0.0
  0
VERTEX
  8
0
 10
391.239324
 20
-700.2
 30
0.0
  0
VERTEX
  8
0
 10
396.764198
 20
-700.8
 30
0.0
  0
VERTEX
  8
0
 10
402.381370
 20
-701.3
 30
0.0
  0
VERTEX
  8
0
 10
407.988050
 20
-701.9
 30
0.0
  0
VERTEX
  8
0
 10
413.481448
 20
-702.4
 30
0.0
  0
VERTEX
  8
0
 10
418.758776
 20
-702.9
 30
0.0
  0
VERTEX
  8
0
 10
423.717243
 20
-703.3
 30
0.0
  0
VERTEX
  8
0
 10
428.254059
 20
-703.6
 30
0.0
  0
VERTEX
  8
0
 10
432.291514
 20
-703.9
 30
0.0
  0
VERTEX
  8
0
 10
435.852206
 20
-704.0
 30
0.0
  0
VERTEX
  8
0
 10
438.983811
 20
-704.0
 30
0.0
  0
VERTEX
  8
0
 10
441.734006
 20
-703.9
 30
0.0
  0
VERTEX
  8
0
 10
444.150466
 20
-703.8
 30
0.0
  0
VERTEX
  8
0
 10
446.280868
 20
-703.6
 30
0.0
  0
VERTEX
  8
0
 10
448.172889
 20
-703.4
 30
0.0
  0
VERTEX
  8
0
 10
449.874204
 20
-703.1
 30
0.0
  0
VERTEX
  8
0
 10
451.432491
 20
-702.8
 30
0.0
  0
VERTEX
  8
0
 10
452.895424
 20
-702.4
 30
0.0
  0
VERTEX
  8
0
 10
454.310682
 20
-702.1
 30
0.0
  0
SEQEND
  8
0
  0
POLYLINE
  8
0
 66
     1
 70
     0
  0
VERTEX
  8
0
 10
193.134208
 20
-706.2
 30
0.0
  0
VERTEX
  8
0
 10
193.338362
 20
-706.1
 30
0.0
  0
VERTEX
  8
0
 10
193.546166
 20
-705.9
 30
0.0
  0
VERTEX
  8
0
 10
193.761271
 20
-705.8
 30
0.0
  0
VERTEX
  8
0
 10
193.987327
 20
-705.6
 30
0.0
  0
VERTEX
  8
0
 10
194.227984
 20
-705.5
 30
0.0
  0
VERTEX
  8
0
 10
194.486892
 20
-705.4
 30
0.0
  0
VERTEX
  8
0
 10
194.767702
 20
-705.3
 30
0.0
  0
VERTEX
  8
0
 10
195.074065
 20
-705.3
 30
0.0
  0
VERTEX
  8
0
 10
195.409630
 20
-705.2
 30
0.0
  0
VERTEX
  8
0
 10
195.778048
 20
-705.2
 30
0.0
  0
VERTEX
  8
0
 10
196.182969
 20
-705.2
 30
0.0
  0
VERTEX
  8
0
 10
196.626271
 20
-705.2
 30
0.0
  0
VERTEX
  8
0
 10
197.102745
 20
-705.3
 30
0.0
  0
VERTEX
  8
0
 10
197.605408
 20
-705.4
 30
0.0
  0
VERTEX
  8
0
 10
198.127280
 20
-705.5
 30
0.0
  0
VERTEX
  8
0
 10
198.661379
 20
-705.6
 30
0.0
  0
VERTEX
  8
0
 10
199.200722
 20
-705.7
 30
0.0
  0
VERTEX
  8
0
 10
199.738328
 20
-705.9
 30
0.0
  0
VERTEX
  8
0
 10
200.267215
 20
-706.0
 30
0.0
  0
VERTEX
  8
0
 10
200.780402
 20
-706.1
 30
0.0
  0
VERTEX
  8
0
 10
201.270907
 20
-706.2
 30
0.0
  0
VERTEX
  8
0
 10
201.731748
 20
-706.3
 30
0.0
  0
VERTEX
  8
0
 10
202.157662
 20
-706.4
 30
0.0
  0
VERTEX
  8
0
 10
202.550262
 20
-706.4
 30
0.0
  0
VERTEX
  8
0
 10
202.912880
 20
-706.4
 30
0.0
  0
VERTEX
  8
0
 10
203.248846
 20
-706.4
 30
0.0
  0
VERTEX
  8
0
 10
203.561492
 20
-706.4
 30
0.0
  0
VERTEX
  8
0
 10
203.854149
 20
-706.4
 30
0.0
  0
VERTEX
  8
0
 10
204.130149
 20
-706.4
 30
0.0
  0
VERTEX
  8
0
 10
204.392824
 20
-706.4
 30
0.0
  0
VERTEX
  8
0
 10
204.645504
 20
-706.3
 30
0.0
  0
VERTEX
  8
0
 10
204.891522
 20
-706.3
 30
0.0
  0
VERTEX
  8
0
 10
205.134208
 20
-706.2
 30
0.0
  0
SEQEND
  8
0
  0
ARC
  8
7
 10
158.134208
 20
-642.3
 30
0.0
 40
12.0
 50
73.808650
 51
106.191340
  0
ARC
  8
7
 10
161.034209
 20
-632.3
 30
0.0
 40
1.599999
 50
0.0
 51
73.808590
  0
ARC
  8
7
 10
155.234207
 20
-632.3
 30
0.0
 40
1.599999
 50
106.191280
 51
180.0
  0
LINE
  8
0
 10
205.134208
 20
-593.3
 30
0.0
 11
205.134208
 21
-572.6
 31
0.0
  0
LINE
  8
0
 10
193.134208
 20
-593.3
 30
0.0
 11
193.134208
 21
-572.6
 31
0.0
  0
LINE
  8
0
 10
199.134208
 20
-574.6
 30
0.0
 11
205.134208
 21
-574.6
 31
0.0
  0
LINE
  8
0
 10
205.134208
 20
-574.6
 30
0.0
 11
211.134208
 21
-574.6
 31
0.0
  0
LINE
  8
0
 10
207.134208
 20
-574.1
 30
0.0
 11
205.134208
 21
-574.6
 31
0.0
  0
LINE
  8
0
 10
205.134208
 20
-574.6
 30
0.0
 11
207.134208
 21
-575.2
 31
0.0
  0
LINE
  8
0
 10
199.134208
 20
-574.6
 30
0.0
 11
193.134208
 21
-574.6
 31
0.0
  0
LINE
  8
0
 10
193.134208
 20
-574.6
 30
0.0
 11
171.814208
 21
-574.6
 31
0.0
  0
LINE
  8
0
 10
191.134208
 20
-575.2
 30
0.0
 11
193.134208
 21
-574.6
 31
0.0
  0
LINE
  8
0
 10
193.134208
 20
-574.6
 30
0.0
 11
191.134208
 21
-574.1
 31
0.0
  0
TEXT
  8
0
 10
171.814208
 20
-574.6
 30
0.0
 40
5.0
  7
CSTEXT
  1
6～
 41
0.800000
 72
     5
 11
179.134208
 21
-574.6
 31
0.0
  0
TEXT
  8
0
 10
179.134208
 20
-574.6
 30
0.0
 40
5.0
  7
CSTEXT
  1
１２
 41
0.800000
 72
     5
 11
187.134208
 21
-574.6
 31
0.0
  0
LINE
  8
0
 10
205.134208
 20
-593.3
 30
0.0
 11
205.134208
 21
-572.6
 31
0.0
  0
LINE
  8
0
 10
248.634208
 20
-633.7
 30
0.0
 11
248.634208
 21
-572.6
 31
0.0
  0
LINE
  8
0
 10
226.884208
 20
-574.6
 30
0.0
 11
205.134208
 21
-574.6
 31
0.0
  0
LINE
  8
0
 10
207.134208
 20
-575.2
 30
0.0
 11
205.134208
 21
-574.6
 31
0.0
  0
LINE
  8
0
 10
205.134208
 20
-574.6
 30
0.0
 11
207.134208
 21
-574.1
 31
0.0
  0
LINE
  8
0
 10
226.884208
 20
-574.6
 30
0.0
 11
248.634208
 21
-574.6
 31
0.0
  0
LINE
  8
0
 10
246.634208
 20
-574.1
 30
0.0
 11
248.634208
 21
-574.6
 31
0.0
  0
LINE
  8
0
 10
248.634208
 20
-574.6
 30
0.0
 11
246.634208
 21
-575.2
 31
0.0
  0
TEXT
  8
0
 10
218.884208
 20
-574.6
 30
0.0
 40
5.0
  7
CSTEXT
  1
４３．５
 41
0.800000
 72
     5
 11
234.884208
 21
-574.6
 31
0.0
  0
LINE
  8
0
 10
150.634208
 20
-689.2
 30
0.0
 11
150.634208
 21
-721.9
 31
0.0
  0
LINE
  8
0
 10
247.634208
 20
-671.3
 30
0.0
 11
247.634208
 21
-721.9
 31
0.0
  0
LINE
  8
0
 10
199.134208
 20
-719.9
 30
0.0
 11
150.634208
 21
-719.9
 31
0.0
  0
LINE
  8
0
 10
152.634208
 20
-720.5
 30
0.0
 11
150.634208
 21
-719.9
 31
0.0
  0
LINE
  8
0
 10
150.634208
 20
-719.9
 30
0.0
 11
152.634208
 21
-719.4
 31
0.0
  0
LINE
  8
0
 10
199.134208
 20
-719.9
 30
0.0
 11
247.634208
 21
-719.9
 31
0.0
  0
LINE
  8
0
 10
245.634208
 20
-719.4
 30
0.0
 11
247.634208
 21
-719.9
 31
0.0
  0
LINE
  8
0
 10
247.634208
 20
-719.9
 30
0.0
 11
245.634208
 21
-720.5
 31
0.0
  0
TEXT
  8
0
 10
195.134208
 20
-719.9
 30
0.0
 40
5.0
  7
CSTEXT
  1
９７
 41
0.800000
 72
     5
 11
203.134208
 21
-719.9
 31
0.0
  0
LINE
  8
0
 10
247.634208
 20
-671.3
 30
0.0
 11
247.634208
 21
-721.9
 31
0.0
  0
LINE
  8
0
 10
253.131606
 20
-682.3
 30
0.0
 11
253.131606
 21
-721.9
 31
0.0
  0
LINE
  8
0
 10
250.382907
 20
-719.9
 30
0.0
 11
247.634208
 21
-719.9
 31
0.0
  0
LINE
  8
0
 10
247.634208
 20
-719.9
 30
0.0
 11
241.634208
 21
-719.9
 31
0.0
  0
LINE
  8
0
 10
245.634208
 20
-720.5
 30
0.0
 11
247.634208
 21
-719.9
 31
0.0
  0
LINE
  8
0
 10
247.634208
 20
-719.9
 30
0.0
 11
245.634208
 21
-719.4
 31
0.0
  0
LINE
  8
0
 10
250.382907
 20
-719.9
 30
0.0
 11
253.131606
 21
-719.9
 31
0.0
  0
LINE
  8
0
 10
253.131606
 20
-719.9
 30
0.0
 11
271.131606
 21
-719.9
 31
0.0
  0
LINE
  8
0
 10
255.131606
 20
-719.4
 30
0.0
 11
253.131606
 21
-719.9
 31
0.0
  0
LINE
  8
0
 10
253.131606
 20
-719.9
 30
0.0
 11
255.131606
 21
-720.5
 31
0.0
  0
TEXT
  8
0
 10
259.131606
 20
-719.9
 30
0.0
 40
5.0
  7
CSTEXT
  1
５．５
 41
0.800000
 72
     5
 11
271.131606
 21
-719.9
 31
0.0
  0
LINE
  8
0
 10
324.813284
 20
-678.3
 30
0.0
 11
324.813284
 21
-572.6
 31
0.0
  0
LINE
  8
0
 10
334.810682
 20
-637.2
 30
0.0
 11
334.810682
 21
-572.6
 31
0.0
  0
LINE
  8
0
 10
329.811983
 20
-574.6
 30
0.0
 11
324.813284
 21
-574.6
 31
0.0
  0
LINE
  8
0
 10
324.813284
 20
-574.6
 30
0.0
 11
310.813284
 21
-574.6
 31
0.0
  0
LINE
  8
0
 10
322.813284
 20
-575.2
 30
0.0
 11
324.813284
 21
-574.6
 31
0.0
  0
LINE
  8
0
 10
324.813284
 20
-574.6
 30
0.0
 11
322.813284
 21
-574.1
 31
0.0
  0
LINE
  8
0
 10
329.811983
 20
-574.6
 30
0.0
 11
334.810682
 21
-574.6
 31
0.0
  0
LINE
  8
0
 10
334.810682
 20
-574.6
 30
0.0
 11
340.810682
 21
-574.6
 31
0.0
  0
LINE
  8
0
 10
336.810682
 20
-574.1
 30
0.0
 11
334.810682
 21
-574.6
 31
0.0
  0
LINE
  8
0
 10
334.810682
 20
-574.6
 30
0.0
 11
336.810682
 21
-575.2
 31
0.0
  0
TEXT
  8
0
 10
310.813284
 20
-574.6
 30
0.0
 40
5.0
  7
CSTEXT
  1
１０
 41
0.800000
 72
     5
 11
318.813284
 21
-574.6
 31
0.0
  0
LINE
  8
0
 10
334.810682
 20
-637.2
 30
0.0
 11
334.810682
 21
-572.6
 31
0.0
  0
LINE
  8
0
 10
473.810682
 20
-637.2
 30
0.0
 11
473.810682
 21
-572.6
 31
0.0
  0
LINE
  8
0
 10
404.310682
 20
-574.6
 30
0.0
 11
334.810682
 21
-574.6
 31
0.0
  0
LINE
  8
0
 10
336.810682
 20
-575.2
 30
0.0
 11
334.810682
 21
-574.6
 31
0.0
  0
LINE
  8
0
 10
334.810682
 20
-574.6
 30
0.0
 11
336.810682
 21
-574.1
 31
0.0
  0
LINE
  8
0
 10
404.310682
 20
-574.6
 30
0.0
 11
473.810682
 21
-574.6
 31
0.0
  0
LINE
  8
0
 10
471.810682
 20
-574.1
 30
0.0
 11
473.810682
 21
-574.6
 31
0.0
  0
LINE
  8
0
 10
473.810682
 20
-574.6
 30
0.0
 11
471.810682
 21
-575.2
 31
0.0
  0
TEXT
  8
0
 10
398.310682
 20
-574.6
 30
0.0
 40
5.0
  7
CSTEXT
  1
１３９
 41
0.800000
 72
     5
 11
410.310682
 21
-574.6
 31
0.0
  0
LINE
  8
0
 10
470.610682
 20
-638.2
 30
0.0
 11
487.976416
 21
-638.2
 31
0.0
  0
LINE
  8
0
 10
470.810682
 20
-689.2
 30
0.0
 11
487.976416
 21
-689.2
 31
0.0
  0
LINE
  8
0
 10
485.976416
 20
-663.7
 30
0.0
 11
485.976416
 21
-638.2
 31
0.0
  0
LINE
  8
0
 10
485.440518
 20
-640.2
 30
0.0
 11
485.976416
 21
-638.2
 31
0.0
  0
LINE
  8
0
 10
485.976416
 20
-638.2
 30
0.0
 11
486.512315
 21
-640.2
 31
0.0
  0
LINE
  8
0
 10
485.976416
 20
-663.7
 30
0.0
 11
485.976416
 21
-689.2
 31
0.0
  0
LINE
  8
0
 10
486.512315
 20
-687.2
 30
0.0
 11
485.976416
 21
-689.2
 31
0.0
  0
LINE
  8
0
 10
485.976416
 20
-689.2
 30
0.0
 11
485.440518
 21
-687.2
 31
0.0
  0
TEXT
  8
0
 10
485.976416
 20
-667.7
 30
0.0
 40
5.0
  7
CSTEXT
  1
５１
 50
90.0
 41
0.800000
 72
     5
 11
485.976416
 21
-659.7
 31
0.0
  0
LINE
  8
0
 10
354.310682
 20
-704.1
 30
0.0
 11
354.310682
 21
-721.9
 31
0.0
  0
LINE
  8
0
 10
454.310682
 20
-704.1
 30
0.0
 11
454.310682
 21
-721.9
 31
0.0
  0
LINE
  8
0
 10
404.310682
 20
-719.9
 30
0.0
 11
354.310682
 21
-719.9
 31
0.0
  0
LINE
  8
0
 10
356.310682
 20
-720.5
 30
0.0
 11
354.310682
 21
-719.9
 31
0.0
  0
LINE
  8
0
 10
354.310682
 20
-719.9
 30
0.0
 11
356.310682
 21
-719.4
 31
0.0
  0
LINE
  8
0
 10
404.310682
 20
-719.9
 30
0.0
 11
454.310682
 21
-719.9
 31
0.0
  0
LINE
  8
0
 10
452.310682
 20
-719.4
 30
0.0
 11
454.310682
 21
-719.9
 31
0.0
  0
LINE
  8
0
 10
454.310682
 20
-719.9
 30
0.0
 11
452.310682
 21
-720.5
 31
0.0
  0
TEXT
  8
0
 10
391.670682
 20
-719.9
 30
0.0
 40
5.0
  7
CSTEXT
  1
MAX.
 41
0.800000
 72
     5
 11
404.950682
 21
-719.9
 31
0.0
  0
TEXT
  8
0
 10
404.950682
 20
-719.9
 30
0.0
 40
5.0
  7
CSTEXT
  1
１００
 41
0.800000
 72
     5
 11
416.950682
 21
-719.9
 31
0.0
  0
LINE
  8
0
 10
151.134208
 20
-689.2
 30
0.0
 11
138.898211
 21
-689.2
 31
0.0
  0
LINE
  8
0
 10
188.634208
 20
-608.7
 30
0.0
 11
138.898211
 21
-608.7
 31
0.0
  0
LINE
  8
0
 10
140.898211
 20
-648.9
 30
0.0
 11
140.898211
 21
-689.2
 31
0.0
  0
LINE
  8
0
 10
141.434109
 20
-687.2
 30
0.0
 11
140.898211
 21
-689.2
 31
0.0
  0
LINE
  8
0
 10
140.898211
 20
-689.2
 30
0.0
 11
140.362312
 21
-687.2
 31
0.0
  0
LINE
  8
0
 10
140.898211
 20
-648.9
 30
0.0
 11
140.898211
 21
-608.7
 31
0.0
  0
LINE
  8
0
 10
140.362312
 20
-610.7
 30
0.0
 11
140.898211
 21
-608.7
 31
0.0
  0
LINE
  8
0
 10
140.898211
 20
-608.7
 30
0.0
 11
141.434109
 21
-610.7
 31
0.0
  0
TEXT
  8
0
 10
140.898211
 20
-656.9
 30
0.0
 40
5.0
  7
CSTEXT
  1
８０．５
 50
90.0
 41
0.800000
 72
     5
 11
140.898211
 21
-640.9
 31
0.0
  0
LINE
  8
0
 10
151.134208
 20
-689.2
 30
0.0
 11
138.898211
 21
-689.2
 31
0.0
  0
LINE
  8
0
 10
153.634208
 20
-695.7
 30
0.0
 11
138.898211
 21
-695.7
 31
0.0
  0
LINE
  8
0
 10
140.898211
 20
-692.4
 30
0.0
 11
140.898211
 21
-689.2
 31
0.0
  0
LINE
  8
0
 10
140.898211
 20
-689.2
 30
0.0
 11
140.898211
 21
-683.2
 31
0.0
  0
LINE
  8
0
 10
140.362312
 20
-687.2
 30
0.0
 11
140.898211
 21
-689.2
 31
0.0
  0
LINE
  8
0
 10
140.898211
 20
-689.2
 30
0.0
 11
141.434109
 21
-687.2
 31
0.0
  0
LINE
  8
0
 10
140.898211
 20
-692.4
 30
0.0
 11
140.898211
 21
-695.7
 31
0.0
  0
LINE
  8
0
 10
140.898211
 20
-695.7
 30
0.0
 11
140.898211
 21
-705.7
 31
0.0
  0
LINE
  8
0
 10
141.434109
 20
-697.7
 30
0.0
 11
140.898211
 21
-695.7
 31
0.0
  0
LINE
  8
0
 10
140.898211
 20
-695.7
 30
0.0
 11
140.362312
 21
-697.7
 31
0.0
  0
TEXT
  8
0
 10
140.898211
 20
-705.7
 30
0.0
 40
5.0
  7
CSTEXT
  1
７
 50
90.0
 41
0.800000
 72
     5
 11
140.898211
 21
-701.7
 31
0.0
  0
LINE
  8
0
 10
339.810682
 20
-612.7
 30
0.0
 11
339.810682
 21
-580.9
 31
0.0
  0
LINE
  8
0
 10
468.810682
 20
-612.7
 30
0.0
 11
468.810682
 21
-580.9
 31
0.0
  0
LINE
  8
0
 10
404.310682
 20
-582.9
 30
0.0
 11
339.810682
 21
-582.9
 31
0.0
  0
LINE
  8
0
 10
341.810682
 20
-583.4
 30
0.0
 11
339.810682
 21
-582.9
 31
0.0
  0
LINE
  8
0
 10
339.810682
 20
-582.9
 30
0.0
 11
341.810682
 21
-582.4
 31
0.0
  0
LINE
  8
0
 10
404.310682
 20
-582.9
 30
0.0
 11
468.810682
 21
-582.9
 31
0.0
  0
LINE
  8
0
 10
466.810682
 20
-582.4
 30
0.0
 11
468.810682
 21
-582.9
 31
0.0
  0
LINE
  8
0
 10
468.810682
 20
-582.9
 30
0.0
 11
466.810682
 21
-583.4
 31
0.0
  0
TEXT
  8
0
 10
398.310682
 20
-582.9
 30
0.0
 40
5.0
  7
CSTEXT
  1
１２９
 41
0.800000
 72
     5
 11
410.310682
 21
-582.9
 31
0.0
  0
ARC
  8
7
 10
463.810682
 20
-642.3
 30
0.0
 40
12.0
 50
73.808650
 51
106.191340
  0
ARC
  8
7
 10
466.710682
 20
-632.3
 30
0.0
 40
1.599999
 50
0.0
 51
73.808590
  0
ARC
  8
7
 10
460.910681
 20
-632.3
 30
0.0
 40
1.599999
 50
106.191280
 51
180.0
  0
TEXT
  8
3
 10
178.129826
 20
-703.2
 30
0.0
 40
5.0
  7
CSTEXT
  1
L
 41
0.800000
 72
     5
 11
181.449826
 21
-703.2
 31
0.0
  0
TEXT
  8
3
 10
178.129826
 20
-601.1
 30
0.0
 40
5.0
  7
CSTEXT
  1
K
 41
0.800000
 72
     5
 11
181.449826
 21
-601.1
 31
0.0
  0
TEXT
  8
3
 10
227.239536
 20
-699.3
 30
0.0
 40
5.0
  7
CSTEXT
  1
k
 41
0.800000
 72
     5
 11
230.559536
 21
-699.3
 31
0.0
  0
POLYLINE
  8
0
 66
     1
 70
     0
  0
VERTEX
  8
0
 10
249.212221
 20
-698.5
 30
0.0
  0
VERTEX
  8
0
 10
249.269966
 20
-698.4
 30
0.0
  0
VERTEX
  8
0
 10
249.327639
 20
-698.3
 30
0.0
  0
VERTEX
  8
0
 10
249.385170
 20
-698.2
 30
0.0
  0
VERTEX
  8
0
 10
249.442485
 20
-698.1
 30
0.0
  0
VERTEX
  8
0
 10
249.499515
 20
-698.0
 30
0.0
  0
VERTEX
  8
0
 10
249.556186
 20
-697.9
 30
0.0
  0
VERTEX
  8
0
 10
249.612427
 20
-697.8
 30
0.0
  0
VERTEX
  8
0
 10
249.668168
 20
-697.7
 30
0.0
  0
VERTEX
  8
0
 10
249.723335
 20
-697.5
 30
0.0
  0
VERTEX
  8
0
 10
249.777859
 20
-697.4
 30
0.0
  0
VERTEX
  8
0
 10
249.831666
 20
-697.2
 30
0.0
  0
VERTEX
  8
0
 10
249.884609
 20
-697.1
 30
0.0
  0
VERTEX
  8
0
 10
249.936230
 20
-696.9
 30
0.0
  0
VERTEX
  8
0
 10
249.985998
 20
-696.7
 30
0.0
  0
VERTEX
  8
0
 10
250.033379
 20
-696.5
 30
0.0
  0
VERTEX
  8
0
 10
250.077839
 20
-696.3
 30
0.0
  0
VERTEX
  8
0
 10
250.118846
 20
-696.1
 30
0.0
  0
VERTEX
  8
0
 10
250.155866
 20
-695.9
 30
0.0
  0
VERTEX
  8
0
 10
250.188367
 20
-695.7
 30
0.0
  0
VERTEX
  8
0
 10
250.215814
 20
-695.5
 30
0.0
  0
VERTEX
  8
0
 10
250.237675
 20
-695.4
 30
0.0
  0
VERTEX
  8
0
 10
250.253416
 20
-695.2
 30
0.0
  0
VERTEX
  8
0
 10
250.262604
 20
-695.1
 30
0.0
  0
VERTEX
  8
0
 10
250.265205
 20
-695.0
 30
0.0
  0
VERTEX
  8
0
 10
250.261285
 20
-694.8
 30
0.0
  0
VERTEX
  8
0
 10
250.250908
 20
-694.8
 30
0.0
  0
VERTEX
  8
0
 10
250.234141
 20
-694.7
 30
0.0
  0
VERTEX
  8
0
 10
250.211049
 20
-694.6
 30
0.0
  0
VERTEX
  8
0
 10
250.181696
 20
-694.6
 30
0.0
  0
VERTEX
  8
0
 10
250.146150
 20
-694.6
 30
0.0
  0
VERTEX
  8
0
 10
250.104475
 20
-694.7
 30
0.0
  0
VERTEX
  8
0
 10
250.056737
 20
-694.7
 30
0.0
  0
VERTEX
  8
0
 10
250.003002
 20
-694.8
 30
0.0
  0
VERTEX
  8
0
 10
249.943626
 20
-694.9
 30
0.0
  0
VERTEX
  8
0
 10
249.880134
 20
-695.1
 30
0.0
  0
VERTEX
  8
0
 10
249.814341
 20
-695.2
 30
0.0
  0
VERTEX
  8
0
 10
249.748064
 20
-695.4
 30
0.0
  0
VERTEX
  8
0
 10
249.683118
 20
-695.6
 30
0.0
  0
VERTEX
  8
0
 10
249.621320
 20
-695.8
 30
0.0
  0
VERTEX
  8
0
 10
249.564485
 20
-696.0
 30
0.0
  0
VERTEX
  8
0
 10
249.514429
 20
-696.3
 30
0.0
  0
VERTEX
  8
0
 10
249.472969
 20
-696.5
 30
0.0
  0
VERTEX
  8
0
 10
249.441919
 20
-696.7
 30
0.0
  0
VERTEX
  8
0
 10
249.423096
 20
-696.9
 30
0.0
  0
VERTEX
  8
0
 10
249.417811
 20
-697.2
 30
0.0
  0
VERTEX
  8
0
 10
249.425359
 20
-697.4
 30
0.0
  0
VERTEX
  8
0
 10
249.444531
 20
-697.5
 30
0.0
  0
VERTEX
  8
0
 10
249.474117
 20
-697.7
 30
0.0
  0
VERTEX
  8
0
 10
249.512908
 20
-697.9
 30
0.0
  0
VERTEX
  8
0
 10
249.559693
 20
-698.0
 30
0.0
  0
VERTEX
  8
0
 10
249.613263
 20
-698.1
 30
0.0
  0
VERTEX
  8
0
 10
249.672409
 20
-698.2
 30
0.0
  0
VERTEX
  8
0
 10
249.735921
 20
-698.3
 30
0.0
  0
VERTEX
  8
0
 10
249.802589
 20
-698.4
 30
0.0
  0
VERTEX
  8
0
 10
249.871205
 20
-698.4
 30
0.0
  0
VERTEX
  8
0
 10
249.940748
 20
-698.5
 30
0.0
  0
VERTEX
  8
0
 10
250.010962
 20
-698.5
 30
0.0
  0
VERTEX
  8
0
 10
250.081778
 20
-698.5
 30
0.0
  0
VERTEX
  8
0
 10
250.153131
 20
-698.4
 30
0.0
  0
VERTEX
  8
0
 10
250.224953
 20
-698.4
 30
0.0
  0
VERTEX
  8
0
 10
250.297178
 20
-698.4
 30
0.0
  0
VERTEX
  8
0
 10
250.369737
 20
-698.3
 30
0.0
  0
VERTEX
  8
0
 10
250.442565
 20
-698.2
 30
0.0
  0
VERTEX
  8
0
 10
250.515593
 20
-698.1
 30
0.0
  0
VERTEX
  8
0
 10
250.588756
 20
-698.1
 30
0.0
  0
VERTEX
  8
0
 10
250.661986
 20
-698.0
 30
0.0
  0
SEQEND
  8
0
  0
LINE
  8
0
 10
251.707015
 20
-675.9
 30
0.0
 11
258.773902
 21
-667.1
 31
0.0
  0
LINE
  8
0
 10
252.705380
 20
-673.6
 30
0.0
 11
251.707015
 21
-675.9
 31
0.0
  0
LINE
  8
0
 10
251.707015
 20
-675.9
 30
0.0
 11
253.709255
 21
-674.4
 31
0.0
  0
TEXT
  8
0
 10
262.773902
 20
-667.1
 30
0.0
 40
5.0
  7
CSTEXT
  1
M5ネジ
 41
0.800000
 72
     5
 11
277.413902
 21
-667.1
 31
0.0
  0
LINE
  8
0
 10
258.773902
 20
-667.1
 30
0.0
 11
277.413902
 21
-667.1
 31
0.0
  0
LINE
  8
0
 10
248.634208
 20
-638.9
 30
0.0
 11
258.244587
 21
-623.9
 31
0.0
  0
LINE
  8
0
 10
249.384800
 20
-636.5
 30
0.0
 11
248.634208
 21
-638.9
 31
0.0
  0
LINE
  8
0
 10
248.634208
 20
-638.9
 30
0.0
 11
250.468529
 21
-637.2
 31
0.0
  0
TEXT
  8
0
 10
262.244587
 20
-623.9
 30
0.0
 40
5.0
  7
CSTEXT
  1
ブスバー取付金具
 41
0.800000
 72
     5
 11
294.244587
 21
-623.9
 31
0.0
  0
LINE
  8
0
 10
258.244587
 20
-623.9
 30
0.0
 11
294.244587
 21
-623.9
 31
0.0
  0
LINE
  8
0
 10
205.083490
 20
-602.4
 30
0.0
 11
248.398884
 21
-586.3
 31
0.0
  0
LINE
  8
0
 10
207.108154
 20
-601.0
 30
0.0
 11
205.083490
 21
-602.4
 31
0.0
  0
LINE
  8
0
 10
205.083490
 20
-602.4
 30
0.0
 11
207.557019
 21
-602.2
 31
0.0
  0
TEXT
  8
0
 10
252.398884
 20
-586.3
 30
0.0
 40
5.0
  7
CSTEXT
  1
ブスバー
 41
0.800000
 72
     5
 11
268.398884
 21
-586.3
 31
0.0
  0
LINE
  8
0
 10
248.398884
 20
-586.3
 30
0.0
 11
268.398884
 21
-586.3
 31
0.0
  0
ENDSEC
  0
EOF
