  0
SECTION
  2
HEADER
  9
$ACADVER
  1
AC1009
  9
$EXTMIN
 10
0.0
 20
-1208.0
 30
0.0
  9
$EXTMAX
 10
841.0
 20
594.0
 30
0.0
  9
$LTSCALE
 40
1.0
  9
$AUNITS
 70
     0
  9
$ANGBASE
 50
0.0
  9
$ANGDIR
 70
     0
  9
$PDMODE
 70
     2
  9
$PDSIZE
 40
0.0
  0
ENDSEC
  0
SECTION
  2
TABLES
  0
TABLE
  2
LTYPE
 70
     5
  0
LTYPE
  2
CONTINUOUS
 70
    64
  3
実線
 72
    65
 73
     0
 40
0.0
  0
LTYPE
  2
HIDDEN
 70
    64
  3
- - - - - - - -  - - 
 72
    65
 73
     2
 40
1.875
 49
1.25
 49
-0.625
  0
LTYPE
  2
CENTER
 70
    64
  3
------ - ------ - ----
 72
    65
 73
     4
 40
10.0
 49
6.25
 49
-1.25
 49
1.25
 49
-1.25
  0
LTYPE
  2
DASHED
 70
    64
  3
-- -- -- -- -- -- 
 72
    65
 73
     2
 40
3.75
 49
2.5
 49
-1.25
  0
LTYPE
  2
PHANTOM
 70
    64
  3
----- - - ----- - - ---
 72
    65
 73
     6
 40
12.5
 49
6.25
 49
-1.25
 49
1.25
 49
-1.25
 49
1.25
 49
-1.25
  0
ENDTAB
  0
TABLE
  2
LAYER
 70
     9
  0
LAYER
  2
0
 70
     0
 62
     3
  6
CONTINUOUS
  0
LAYER
  2
1
 70
     0
 62
     3
  6
CONTINUOUS
  0
LAYER
  2
2
 70
     0
 62
     3
  6
CONTINUOUS
  0
LAYER
  2
3
 70
     0
 62
     7
  6
CONTINUOUS
  0
LAYER
  2
4
 70
     0
 62
     4
  6
CONTINUOUS
  0
LAYER
  2
5
 70
     0
 62
     1
  6
CONTINUOUS
  0
LAYER
  2
6
 70
     0
 62
     2
  6
CENTER
  0
LAYER
  2
7
 70
     0
 62
     7
  6
CONTINUOUS
  0
LAYER
  2
8
 70
     0
 62
     2
  6
CONTINUOUS
  0
ENDTAB
  0
TABLE
  2
STYLE
 70
     3
  0
STYLE
  2
STANDARD
 70
     0
 40
0.0
 41
1.0
 50
0.0
 71
     0
 42
0.200000
  3
txt
  4
bigfont
  0
STYLE
  2
CSTEXT
 70
    64
 40
0.0
 41
1.0
 50
0.0
 71
     0
 42
1.0
  3
TXT
  4
BIGFONT
  0
STYLE
  2
CSTEXT_T
 70
    68
 40
0.0
 41
1.0
 50
0.0
 71
     0
 42
1.0
  3
TXT
  4
BIGFONT
  0
ENDTAB
  0
TABLE
  2
DIMSTYLE
 70
     1
  0
DIMSTYLE
  2
ISO-25
 70
     0
  3

  4

  5

  6

  7

 40
1.0
 41
2.5
 42
0.625
 43
3.75
 44
1.25
 45
0.0
 46
0.0
 47
0.0
 48
0.0
140
2.5
141
2.5
142
0.0
143
0.04
144
1.0
145
0.0
146
1.0
147
0.625
 71
     0
 72
     0
 73
     0
 74
     0
 75
     0
 76
     0
 77
     1
 78
     8
170
     0
171
     3
172
     1
173
     0
174
     0
175
     0
176
     0
177
     0
178
     0
  0
ENDTAB
  0
ENDSEC
  0
SECTION
  2
ENTITIES
  0
POLYLINE
  8
4
 66
     1
 70
     0
  0
VERTEX
  8
4
 10
0.0
 20
0.0
 30
0.0
  0
VERTEX
  8
4
 10
0.0
 20
594.0
 30
0.0
  0
VERTEX
  8
4
 10
841.0
 20
594.0
 30
0.0
  0
VERTEX
  8
4
 10
841.0
 20
0.0
 30
0.0
  0
VERTEX
  8
4
 10
0.0
 20
0.0
 30
0.0
  0
SEQEND
  8
4
  0
TEXT
  8
4
 10
740.632000
 20
23.0
 30
0.0
 40
14.0
  7
CSTEXT
  1
A1 S=1/1
 41
0.800000
 72
     5
 11
815.0
 21
23.0
 31
0.0
  0
TEXT
  8
3
 10
12.500000
 20
13.250000
 30
0.0
 40
3.500000
  7
CSTEXT
  1
A (3314) V-25
 41
0.800000
 72
     5
 11
42.712000
 21
13.250000
 31
0.0
  0
POLYLINE
  8
4
 66
     1
 70
     0
  0
VERTEX
  8
4
 10
8.0
 20
9.500000
 30
0.0
  0
VERTEX
  8
4
 10
8.0
 20
584.500000
 30
0.0
  0
VERTEX
  8
4
 10
833.0
 20
584.500000
 30
0.0
  0
VERTEX
  8
4
 10
833.0
 20
9.500000
 30
0.0
  0
VERTEX
  8
4
 10
8.0
 20
9.500000
 30
0.0
  0
SEQEND
  8
4
  0
POLYLINE
  8
5
 66
     1
 70
     0
  0
VERTEX
  8
5
 10
20.0
 20
575.0
 30
0.0
  0
VERTEX
  8
5
 10
820.0
 20
575.0
 30
0.0
  0
VERTEX
  8
5
 10
820.0
 20
20.0
 30
0.0
  0
VERTEX
  8
5
 10
20.0
 20
20.0
 30
0.0
  0
VERTEX
  8
5
 10
20.0
 20
575.0
 30
0.0
  0
SEQEND
  8
5
  0
TEXT
  8
3
 10
620.0
 20
525.0
 30
0.0
 40
10.0
  7
CSTEXT
  1
VT-15 220,440/110V
 41
0.800000
 72
     5
 11
739.520000
 21
525.0
 31
0.0
  0
LINE
  8
8
 10
620.0
 20
195.0
 30
0.0
 11
790.0
 21
195.0
 31
0.0
  0
LINE
  8
8
 10
790.0
 20
195.0
 30
0.0
 11
790.0
 21
45.0
 31
0.0
  0
LINE
  8
8
 10
620.0
 20
45.0
 30
0.0
 11
620.0
 21
195.0
 31
0.0
  0
LINE
  8
8
 10
620.0
 20
180.0
 30
0.0
 11
790.0
 21
180.0
 31
0.0
  0
TEXT
  8
3
 10
625.0
 20
188.750000
 30
0.0
 40
5.0
  7
CSTEXT
  1
形名
 41
0.800000
 72
     5
 11
633.0
 21
188.750000
 31
0.0
  0
TEXT
  8
3
 10
625.0
 20
181.250000
 30
0.0
 40
5.0
  7
CSTEXT
  1
Type
 41
0.800000
 72
     5
 11
638.280000
 21
181.250000
 31
0.0
  0
LINE
  8
8
 10
620.0
 20
165.0
 30
0.0
 11
790.0
 21
165.0
 31
0.0
  0
TEXT
  8
3
 10
625.0
 20
173.750000
 30
0.0
 40
5.0
  7
CSTEXT
  1
変圧比(V)
 41
0.800000
 72
     5
 11
646.960000
 21
173.750000
 31
0.0
  0
TEXT
  8
3
 10
625.0
 20
166.250000
 30
0.0
 40
5.0
  7
CSTEXT
  1
Transformation ratio
 41
0.800000
 72
     5
 11
691.400000
 21
166.250000
 31
0.0
  0
LINE
  8
8
 10
620.0
 20
150.0
 30
0.0
 11
790.0
 21
150.0
 31
0.0
  0
TEXT
  8
3
 10
625.0
 20
158.750000
 30
0.0
 40
5.0
  7
CSTEXT
  1
定格負担(VA)
 41
0.800000
 72
     5
 11
654.280000
 21
158.750000
 31
0.0
  0
TEXT
  8
3
 10
625.0
 20
151.250000
 30
0.0
 40
5.0
  7
CSTEXT
  1
Rated burden
 41
0.800000
 72
     5
 11
664.840000
 21
151.250000
 31
0.0
  0
LINE
  8
8
 10
620.0
 20
135.0
 30
0.0
 11
790.0
 21
135.0
 31
0.0
  0
TEXT
  8
3
 10
625.0
 20
143.750000
 30
0.0
 40
5.0
  7
CSTEXT
  1
確度階級
 41
0.800000
 72
     5
 11
641.0
 21
143.750000
 31
0.0
  0
TEXT
  8
3
 10
625.0
 20
136.250000
 30
0.0
 40
5.0
  7
CSTEXT
  1
Accuracy class
 41
0.800000
 72
     5
 11
671.480000
 21
136.250000
 31
0.0
  0
LINE
  8
8
 10
620.0
 20
120.0
 30
0.0
 11
790.0
 21
120.0
 31
0.0
  0
TEXT
  8
3
 10
625.0
 20
128.750000
 30
0.0
 40
5.0
  7
CSTEXT
  1
周波数(Hz)
 41
0.800000
 72
     5
 11
650.280000
 21
128.750000
 31
0.0
  0
TEXT
  8
3
 10
625.0
 20
121.250000
 30
0.0
 40
5.0
  7
CSTEXT
  1
Frequency
 41
0.800000
 72
     5
 11
654.880000
 21
121.250000
 31
0.0
  0
LINE
  8
8
 10
620.0
 20
105.0
 30
0.0
 11
790.0
 21
105.0
 31
0.0
  0
TEXT
  8
3
 10
625.0
 20
113.750000
 30
0.0
 40
5.0
  7
CSTEXT
  1
耐電圧(kV)
 41
0.800000
 72
     5
 11
650.280000
 21
113.750000
 31
0.0
  0
TEXT
  8
3
 10
625.0
 20
106.250000
 30
0.0
 40
5.0
  7
CSTEXT
  1
Withstand voltage
 41
0.800000
 72
     5
 11
681.440000
 21
106.250000
 31
0.0
  0
LINE
  8
8
 10
620.0
 20
75.0
 30
0.0
 11
790.0
 21
75.0
 31
0.0
  0
LINE
  8
8
 10
620.0
 20
60.0
 30
0.0
 11
790.0
 21
60.0
 31
0.0
  0
TEXT
  8
3
 10
625.0
 20
83.750000
 30
0.0
 40
5.0
  7
CSTEXT
  1
適用規格
 41
0.800000
 72
     5
 11
641.0
 21
83.750000
 31
0.0
  0
TEXT
  8
3
 10
625.0
 20
76.250000
 30
0.0
 40
5.0
  7
CSTEXT
  1
Standard
 41
0.800000
 72
     5
 11
651.560000
 21
76.250000
 31
0.0
  0
LINE
  8
8
 10
620.0
 20
45.0
 30
0.0
 11
790.0
 21
45.0
 31
0.0
  0
TEXT
  8
3
 10
625.0
 20
53.750000
 30
0.0
 40
5.0
  7
CSTEXT
  1
その他
 41
0.800000
 72
     5
 11
637.0
 21
53.750000
 31
0.0
  0
TEXT
  8
3
 10
625.0
 20
46.250000
 30
0.0
 40
5.0
  7
CSTEXT
  1
Miscellaneous
 41
0.800000
 72
     5
 11
668.160000
 21
46.250000
 31
0.0
  0
LINE
  8
8
 10
740.0
 20
195.0
 30
0.0
 11
740.0
 21
45.0
 31
0.0
  0
TEXT
  8
3
 10
756.700000
 20
185.0
 30
0.0
 40
5.0
  7
CSTEXT
  1
VT-15
 41
0.800000
 72
     5
 11
773.300000
 21
185.0
 31
0.0
  0
TEXT
  8
3
 10
758.360000
 20
170.0
 30
0.0
 40
5.0
  7
CSTEXT
  1
/110
 41
0.800000
 72
     5
 11
771.640000
 21
170.0
 31
0.0
  0
TEXT
  8
3
 10
761.680000
 20
155.0
 30
0.0
 40
5.0
  7
CSTEXT
  1
15
 41
0.800000
 72
     5
 11
768.320000
 21
155.0
 31
0.0
  0
TEXT
  8
3
 10
754.700000
 20
140.0
 30
0.0
 40
5.0
  7
CSTEXT
  1
1.0・1P
 41
0.800000
 72
     5
 11
775.300000
 21
140.0
 31
0.0
  0
TEXT
  8
3
 10
752.360000
 20
125.0
 30
0.0
 40
5.0
  7
CSTEXT
  1
50または60
 41
0.800000
 72
     5
 11
777.640000
 21
125.0
 31
0.0
  0
TEXT
  8
3
 10
755.0
 20
110.0
 30
0.0
 40
5.0
  7
CSTEXT
  1
左表による
 41
0.800000
 72
     5
 11
775.0
 21
110.0
 31
0.0
  0
TEXT
  8
3
 10
745.080000
 20
83.750000
 30
0.0
 40
5.0
  7
CSTEXT
  1
JIS C 1731-2
 41
0.800000
 72
     5
 11
784.920000
 21
83.750000
 31
0.0
  0
TEXT
  8
3
 10
625.0
 20
197.500000
 30
0.0
 40
5.0
  7
CSTEXT
  1
Item to be specified in specifications.
 41
0.800000
 72
     5
 11
754.480000
 21
197.500000
 31
0.0
  0
TEXT
  8
3
 10
625.0
 20
205.0
 30
0.0
 40
5.0
  7
CSTEXT
  1
仕様ご指定事項
 41
0.800000
 72
     5
 11
653.0
 21
205.0
 31
0.0
  0
LINE
  8
8
 10
620.0
 20
90.0
 30
0.0
 11
790.0
 21
90.0
 31
0.0
  0
TEXT
  8
3
 10
625.0
 20
98.750000
 30
0.0
 40
5.0
  7
CSTEXT
  1
制限負荷
 41
0.800000
 72
     5
 11
641.0
 21
98.750000
 31
0.0
  0
TEXT
  8
3
 10
625.0
 20
91.250000
 30
0.0
 40
5.0
  7
CSTEXT
  1
Limit output
 41
0.800000
 72
     5
 11
664.840000
 21
91.250000
 31
0.0
  0
TEXT
  8
3
 10
760.020000
 20
95.0
 30
0.0
 40
5.0
  7
CSTEXT
  1
100
 41
0.800000
 72
     5
 11
769.980000
 21
95.0
 31
0.0
  0
TEXT
  8
3
 10
751.720000
 20
76.250000
 30
0.0
 40
5.0
  7
CSTEXT
  1
JEC-1201
 41
0.800000
 72
     5
 11
778.280000
 21
76.250000
 31
0.0
  0
TEXT
  8
3
 10
625.0
 20
68.750000
 30
0.0
 40
5.0
  7
CSTEXT
  1
質量(kg)
 41
0.800000
 72
     5
 11
646.280000
 21
68.750000
 31
0.0
  0
TEXT
  8
3
 10
625.0
 20
61.250000
 30
0.0
 40
5.0
  7
CSTEXT
  1
Mass
 41
0.800000
 72
     5
 11
638.280000
 21
61.250000
 31
0.0
  0
TEXT
  8
3
 10
760.020000
 20
65.0
 30
0.0
 40
5.0
  7
CSTEXT
  1
3.5
 41
0.800000
 72
     5
 11
769.980000
 21
65.0
 31
0.0
  0
LINE
  8
8
 10
520.0
 20
75.0
 30
0.0
 11
600.0
 21
75.0
 31
0.0
  0
LINE
  8
8
 10
600.0
 20
75.0
 30
0.0
 11
600.0
 21
45.0
 31
0.0
  0
LINE
  8
8
 10
600.0
 20
45.0
 30
0.0
 11
520.0
 21
45.0
 31
0.0
  0
LINE
  8
8
 10
520.0
 20
45.0
 30
0.0
 11
520.0
 21
75.0
 31
0.0
  0
LINE
  8
8
 10
520.0
 20
65.0
 30
0.0
 11
600.0
 21
65.0
 31
0.0
  0
LINE
  8
8
 10
520.0
 20
55.0
 30
0.0
 11
600.0
 21
55.0
 31
0.0
  0
LINE
  8
8
 10
560.0
 20
75.0
 30
0.0
 11
560.0
 21
45.0
 31
0.0
  0
TEXT
  8
3
 10
535.020000
 20
57.500000
 30
0.0
 40
5.0
  7
CSTEXT
  1
220
 41
0.800000
 72
     5
 11
544.980000
 21
57.500000
 31
0.0
  0
TEXT
  8
3
 10
535.020000
 20
47.500000
 30
0.0
 40
5.0
  7
CSTEXT
  1
440
 41
0.800000
 72
     5
 11
544.980000
 21
47.500000
 31
0.0
  0
TEXT
  8
3
 10
527.020000
 20
67.500000
 30
0.0
 40
5.0
  7
CSTEXT
  1
一次電圧(V)
 41
0.800000
 72
     5
 11
552.980000
 21
67.500000
 31
0.0
  0
TEXT
  8
3
 10
575.020000
 20
57.500000
 30
0.0
 40
5.0
  7
CSTEXT
  1
2/-
 41
0.800000
 72
     5
 11
584.980000
 21
57.500000
 31
0.0
  0
TEXT
  8
3
 10
575.020000
 20
47.500000
 30
0.0
 40
5.0
  7
CSTEXT
  1
3/-
 41
0.800000
 72
     5
 11
584.980000
 21
47.500000
 31
0.0
  0
TEXT
  8
3
 10
567.360000
 20
67.500000
 30
0.0
 40
5.0
  7
CSTEXT
  1
耐電圧(kV)
 41
0.800000
 72
     5
 11
592.640000
 21
67.500000
 31
0.0
  0
LINE
  8
6
 10
205.0
 20
146.099922
 30
0.0
 11
205.0
 21
288.003090
 31
0.0
  0
LINE
  8
6
 10
269.982577
 20
217.500000
 30
0.0
 11
138.277636
 21
217.500000
 31
0.0
  0
LINE
  8
6
 10
147.500000
 20
167.500001
 30
0.0
 11
162.500000
 21
167.500001
 31
0.0
  0
LINE
  8
6
 10
155.0
 20
175.000001
 30
0.0
 11
155.0
 21
160.000001
 31
0.0
  0
LINE
  8
6
 10
262.500000
 20
167.500001
 30
0.0
 11
247.500000
 21
167.500001
 31
0.0
  0
LINE
  8
6
 10
255.0
 20
175.000001
 30
0.0
 11
255.0
 21
160.000001
 31
0.0
  0
LINE
  8
6
 10
269.982577
 20
417.500000
 30
0.0
 11
138.277636
 21
417.500000
 31
0.0
  0
LINE
  8
6
 10
147.500000
 20
267.500000
 30
0.0
 11
162.500000
 21
267.500000
 31
0.0
  0
LINE
  8
6
 10
155.0
 20
260.0
 30
0.0
 11
155.0
 21
275.0
 31
0.0
  0
LINE
  8
6
 10
163.893853
 20
381.500000
 30
0.0
 11
150.477839
 21
381.500000
 31
0.0
  0
LINE
  8
6
 10
157.0
 20
373.758560
 30
0.0
 11
157.0
 21
387.787320
 31
0.0
  0
LINE
  8
6
 10
163.893853
 20
453.500000
 30
0.0
 11
150.477839
 21
453.500000
 31
0.0
  0
LINE
  8
6
 10
157.0
 20
447.576550
 30
0.0
 11
157.0
 21
460.714950
 31
0.0
  0
LINE
  8
6
 10
205.0
 20
346.099930
 30
0.0
 11
205.0
 21
488.003100
 31
0.0
  0
LINE
  8
6
 10
262.433514
 20
368.0
 30
0.0
 11
238.083333
 21
368.0
 31
0.0
  0
LINE
  8
6
 10
262.500000
 20
267.500000
 30
0.0
 11
247.500000
 21
267.500000
 31
0.0
  0
LINE
  8
6
 10
255.0
 20
260.0
 30
0.0
 11
255.0
 21
275.0
 31
0.0
  0
LINE
  8
6
 10
247.0
 20
372.088470
 30
0.0
 11
247.0
 21
364.406050
 31
0.0
  0
LINE
  8
6
 10
255.0
 20
375.929680
 30
0.0
 11
255.0
 21
360.397830
 31
0.0
  0
LINE
  8
6
 10
262.433514
 20
467.0
 30
0.0
 11
238.083333
 21
467.0
 31
0.0
  0
LINE
  8
6
 10
247.0
 20
470.315580
 30
0.0
 11
247.0
 21
463.291220
 31
0.0
  0
LINE
  8
6
 10
255.0
 20
473.827760
 30
0.0
 11
255.0
 21
459.942400
 31
0.0
  0
LINE
  8
6
 10
432.214666
 20
417.500000
 30
0.0
 11
340.070176
 21
417.500000
 31
0.0
  0
LINE
  8
6
 10
369.750416
 20
368.0
 30
0.0
 11
349.415506
 21
368.0
 31
0.0
  0
LINE
  8
6
 10
369.750416
 20
467.0
 30
0.0
 11
349.415506
 21
467.0
 31
0.0
  0
LINE
  8
7
 10
427.589056
 20
477.500000
 30
0.0
 11
429.889056
 21
477.500000
 31
0.0
  0
LINE
  8
7
 10
427.589056
 20
470.500000
 30
0.0
 11
426.789056
 21
470.500000
 31
0.0
  0
LINE
  8
7
 10
427.589056
 20
453.500000
 30
0.0
 11
427.289056
 21
453.500000
 31
0.0
  0
ARC
  8
7
 10
427.289056
 20
454.0
 30
0.0
 40
0.500000
 50
180.0
 51
270.0
  0
LINE
  8
7
 10
429.889056
 20
456.500000
 30
0.0
 11
426.789056
 21
456.500000
 31
0.0
  0
LINE
  8
7
 10
426.789056
 20
476.500000
 30
0.0
 11
426.789056
 21
454.0
 31
0.0
  0
LINE
  8
7
 10
429.889056
 20
477.500000
 30
0.0
 11
429.889056
 21
456.500000
 31
0.0
  0
LINE
  8
7
 10
427.589056
 20
477.500000
 30
0.0
 11
427.589056
 21
456.500000
 31
0.0
  0
POINT
  8
7
 10
429.889065
 20
477.499999
 30
0.0
  0
POINT
  8
7
 10
427.589062
 20
477.499999
 30
0.0
  0
LINE
  8
7
 10
427.589056
 20
381.500000
 30
0.0
 11
427.289056
 21
381.500000
 31
0.0
  0
ARC
  8
7
 10
427.289056
 20
381.0
 30
0.0
 40
0.500000
 50
90.0
 51
180.0
  0
LINE
  8
7
 10
429.889056
 20
378.500000
 30
0.0
 11
426.789056
 21
378.500000
 31
0.0
  0
LINE
  8
7
 10
427.589056
 20
364.500000
 30
0.0
 11
426.789056
 21
364.500000
 31
0.0
  0
LINE
  8
7
 10
427.589056
 20
357.500000
 30
0.0
 11
429.889056
 21
357.500000
 31
0.0
  0
LINE
  8
7
 10
426.789056
 20
358.500000
 30
0.0
 11
426.789056
 21
381.0
 31
0.0
  0
LINE
  8
7
 10
429.889056
 20
357.500000
 30
0.0
 11
429.889056
 21
378.500000
 31
0.0
  0
LINE
  8
7
 10
427.589056
 20
357.500000
 30
0.0
 11
427.589056
 21
378.500000
 31
0.0
  0
LINE
  8
7
 10
427.589056
 20
381.500000
 30
0.0
 11
427.589056
 21
453.500000
 31
0.0
  0
POINT
  8
7
 10
429.889063
 20
357.500000
 30
0.0
  0
POINT
  8
7
 10
429.889063
 20
477.500000
 30
0.0
  0
LINE
  8
7
 10
383.589056
 20
481.500000
 30
0.0
 11
380.589056
 21
481.500000
 31
0.0
  0
LINE
  8
7
 10
380.589056
 20
476.500000
 30
0.0
 11
380.589056
 21
481.500000
 31
0.0
  0
LINE
  8
7
 10
383.589056
 20
476.500000
 30
0.0
 11
383.589056
 21
481.500000
 31
0.0
  0
LINE
  8
7
 10
361.089056
 20
476.500000
 30
0.0
 11
361.089056
 21
479.0
 31
0.0
  0
LINE
  8
7
 10
361.089056
 20
479.0
 30
0.0
 11
366.089056
 21
479.0
 31
0.0
  0
LINE
  8
7
 10
365.589056
 20
469.100000
 30
0.0
 11
363.589056
 21
469.100000
 31
0.0
  0
LINE
  8
7
 10
365.589056
 20
464.900000
 30
0.0
 11
363.589056
 21
464.900000
 31
0.0
  0
LINE
  8
7
 10
365.589056
 20
464.500000
 30
0.0
 11
363.589056
 21
464.500000
 31
0.0
  0
LINE
  8
7
 10
365.589056
 20
469.500000
 30
0.0
 11
363.589056
 21
469.500000
 31
0.0
  0
LINE
  8
7
 10
365.589056
 20
469.500000
 30
0.0
 11
365.589056
 21
464.500000
 31
0.0
  0
LINE
  8
7
 10
359.589056
 20
473.0
 30
0.0
 11
360.589056
 21
473.0
 31
0.0
  0
LINE
  8
7
 10
359.589056
 20
473.500000
 30
0.0
 11
359.589056
 21
473.0
 31
0.0
  0
LINE
  8
7
 10
359.589056
 20
461.0
 30
0.0
 11
360.589056
 21
461.0
 31
0.0
  0
LINE
  8
7
 10
359.589056
 20
461.0
 30
0.0
 11
359.589056
 21
457.0
 31
0.0
  0
ARC
  8
7
 10
359.589056
 20
452.500000
 30
0.0
 40
1.0
 50
0.0
 51
90.0
  0
LINE
  8
7
 10
360.589056
 20
473.0
 30
0.0
 11
360.589056
 21
461.0
 31
0.0
  0
LINE
  8
7
 10
355.989057
 20
462.400004
 30
0.0
 11
352.989057
 21
462.400004
 31
0.0
  0
LINE
  8
7
 10
352.989060
 20
462.400004
 30
0.0
 11
352.489061
 21
463.100005
 31
0.0
  0
LINE
  8
7
 10
352.489059
 20
463.100002
 30
0.0
 11
352.489059
 21
470.899998
 31
0.0
  0
LINE
  8
7
 10
352.489061
 20
470.899995
 30
0.0
 11
352.989060
 21
471.599996
 31
0.0
  0
LINE
  8
7
 10
352.989057
 20
471.599996
 30
0.0
 11
355.989057
 21
471.599996
 31
0.0
  0
LINE
  8
7
 10
355.989057
 20
471.599999
 30
0.0
 11
355.989057
 21
462.400001
 31
0.0
  0
LINE
  8
7
 10
352.989057
 20
464.700000
 30
0.0
 11
355.989057
 21
464.700000
 31
0.0
  0
LINE
  8
7
 10
352.989057
 20
469.300000
 30
0.0
 11
355.989057
 21
469.300000
 31
0.0
  0
ARC
  8
7
 10
354.059056
 20
463.550000
 30
0.0
 40
1.570000
 50
132.900002
 51
180.0
  0
ARC
  8
7
 10
354.059056
 20
470.450000
 30
0.0
 40
1.570000
 50
180.0
 51
227.099980
  0
ARC
  8
7
 10
358.029057
 20
467.0
 30
0.0
 40
5.539999
 50
155.470423
 51
204.529490
  0
LINE
  8
7
 10
358.289056
 20
462.0
 30
0.0
 11
357.289055
 21
462.0
 31
0.0
  0
LINE
  8
7
 10
357.289056
 20
462.0
 30
0.0
 11
357.289056
 21
472.0
 31
0.0
  0
LINE
  8
7
 10
357.289055
 20
472.0
 30
0.0
 11
358.289056
 21
472.0
 31
0.0
  0
LINE
  8
7
 10
358.289056
 20
472.0
 30
0.0
 11
358.289056
 21
462.0
 31
0.0
  0
LINE
  8
7
 10
355.989055
 20
462.399995
 30
0.0
 11
357.289055
 21
462.399995
 31
0.0
  0
LINE
  8
7
 10
355.989059
 20
471.600002
 30
0.0
 11
357.289055
 21
471.600002
 31
0.0
  0
LINE
  8
7
 10
355.989055
 20
466.700000
 30
0.0
 11
357.289054
 21
467.0
 31
0.0
  0
LINE
  8
7
 10
355.989055
 20
467.300001
 30
0.0
 11
357.289054
 21
467.600001
 31
0.0
  0
POINT
  8
7
 10
358.289056
 20
467.0
 30
0.0
  0
LINE
  8
7
 10
358.289056
 20
472.800000
 30
0.0
 11
358.289056
 21
461.200000
 31
0.0
  0
ARC
  8
7
 10
358.589056
 20
457.0
 30
0.0
 40
1.0
 50
270.0
 51
360.0
  0
LINE
  8
7
 10
360.589056
 20
461.200000
 30
0.0
 11
358.289056
 21
461.200000
 31
0.0
  0
LINE
  8
7
 10
360.589056
 20
472.800000
 30
0.0
 11
358.289056
 21
472.800000
 31
0.0
  0
LINE
  8
7
 10
366.089056
 20
476.500000
 30
0.0
 11
366.089056
 21
479.0
 31
0.0
  0
ARC
  8
7
 10
364.589056
 20
450.500000
 30
0.0
 40
1.0
 50
180.0
 51
270.0
  0
ARC
  8
7
 10
359.589056
 20
448.0
 30
0.0
 40
1.0
 50
270.0
 51
360.0
  0
LINE
  8
7
 10
360.589056
 20
433.250000
 30
0.0
 11
360.589056
 21
441.750000
 31
0.0
  0
LINE
  8
7
 10
355.389056
 20
433.250000
 30
0.0
 11
355.389056
 21
441.750000
 31
0.0
  0
LINE
  8
7
 10
360.589056
 20
433.250000
 30
0.0
 11
355.389056
 21
433.250000
 31
0.0
  0
LINE
  8
7
 10
360.589056
 20
441.750000
 30
0.0
 11
355.389056
 21
441.750000
 31
0.0
  0
LINE
  8
7
 10
360.589056
 20
420.250000
 30
0.0
 11
360.589056
 21
427.500000
 31
0.0
  0
ARC
  8
7
 10
359.089056
 20
420.250000
 30
0.0
 40
1.500000
 50
270.0
 51
360.0
  0
ARC
  8
7
 10
359.089056
 20
414.750000
 30
0.0
 40
1.500000
 50
0.0
 51
90.0
  0
ARC
  8
7
 10
359.089056
 20
427.500000
 30
0.0
 40
1.500000
 50
0.0
 51
90.0
  0
LINE
  8
7
 10
363.589056
 20
450.500000
 30
0.0
 11
363.589056
 21
476.500000
 31
0.0
  0
LINE
  8
7
 10
360.589056
 20
452.500000
 30
0.0
 11
360.589056
 21
448.0
 31
0.0
  0
ARC
  8
7
 10
347.589056
 20
475.500000
 30
0.0
 40
1.0
 50
90.0
 51
180.0
  0
ARC
  8
7
 10
347.389056
 20
454.300000
 30
0.0
 40
0.800000
 50
180.0
 51
270.0
  0
ARC
  8
7
 10
347.389056
 20
455.200000
 30
0.0
 40
0.800000
 50
90.0
 51
180.0
  0
ARC
  8
7
 10
347.389056
 20
474.300000
 30
0.0
 40
0.800000
 50
180.0
 51
270.0
  0
ARC
  8
7
 10
351.089056
 20
446.500000
 30
0.0
 40
0.500000
 50
90.0
 51
180.0
  0
ARC
  8
7
 10
351.089056
 20
429.500000
 30
0.0
 40
0.500000
 50
180.0
 51
270.0
  0
ARC
  8
7
 10
347.389056
 20
417.050000
 30
0.0
 40
0.800000
 50
180.0
 51
270.0
  0
ARC
  8
7
 10
347.389056
 20
417.950000
 30
0.0
 40
0.800000
 50
90.0
 51
180.0
  0
LINE
  8
7
 10
350.589056
 20
429.500000
 30
0.0
 11
350.589056
 21
446.500000
 31
0.0
  0
LINE
  8
7
 10
346.589056
 20
417.500000
 30
0.0
 11
346.589056
 21
475.500000
 31
0.0
  0
LINE
  8
7
 10
347.389056
 20
416.250000
 30
0.0
 11
359.089056
 21
416.250000
 31
0.0
  0
LINE
  8
7
 10
347.389056
 20
418.750000
 30
0.0
 11
359.089056
 21
418.750000
 31
0.0
  0
LINE
  8
7
 10
359.089056
 20
429.0
 30
0.0
 11
351.089056
 21
429.0
 31
0.0
  0
LINE
  8
7
 10
359.589056
 20
473.500000
 30
0.0
 11
347.389056
 21
473.500000
 31
0.0
  0
LINE
  8
7
 10
347.389056
 20
453.500000
 30
0.0
 11
359.589056
 21
453.500000
 31
0.0
  0
LINE
  8
7
 10
358.589056
 20
456.0
 30
0.0
 11
347.389056
 21
456.0
 31
0.0
  0
LINE
  8
7
 10
359.589056
 20
447.0
 30
0.0
 11
351.089056
 21
447.0
 31
0.0
  0
POINT
  8
7
 10
347.589058
 20
476.500005
 30
0.0
  0
POINT
  8
7
 10
380.589054
 20
481.500005
 30
0.0
  0
LINE
  8
7
 10
360.589056
 20
401.750000
 30
0.0
 11
360.589056
 21
393.250000
 31
0.0
  0
LINE
  8
7
 10
355.389056
 20
401.750000
 30
0.0
 11
355.389056
 21
393.250000
 31
0.0
  0
LINE
  8
7
 10
360.589056
 20
393.250000
 30
0.0
 11
355.389056
 21
393.250000
 31
0.0
  0
LINE
  8
7
 10
360.589056
 20
401.750000
 30
0.0
 11
355.389056
 21
401.750000
 31
0.0
  0
ARC
  8
7
 10
359.089056
 20
407.500000
 30
0.0
 40
1.500000
 50
270.0
 51
360.0
  0
ARC
  8
7
 10
364.589056
 20
384.500000
 30
0.0
 40
1.0
 50
90.0
 51
180.0
  0
LINE
  8
7
 10
360.589056
 20
382.500000
 30
0.0
 11
360.589056
 21
387.0
 31
0.0
  0
ARC
  8
7
 10
359.589056
 20
382.500000
 30
0.0
 40
1.0
 50
270.0
 51
360.0
  0
LINE
  8
7
 10
365.589056
 20
370.500000
 30
0.0
 11
363.589056
 21
370.500000
 31
0.0
  0
LINE
  8
7
 10
365.589056
 20
370.100000
 30
0.0
 11
363.589056
 21
370.100000
 31
0.0
  0
LINE
  8
7
 10
359.589056
 20
374.0
 30
0.0
 11
360.589056
 21
374.0
 31
0.0
  0
LINE
  8
7
 10
359.589056
 20
374.0
 30
0.0
 11
359.589056
 21
378.0
 31
0.0
  0
ARC
  8
7
 10
358.589056
 20
378.0
 30
0.0
 40
1.0
 50
0.0
 51
90.0
  0
LINE
  8
7
 10
360.589056
 20
373.800000
 30
0.0
 11
358.289056
 21
373.800000
 31
0.0
  0
ARC
  8
7
 10
359.589056
 20
387.0
 30
0.0
 40
1.0
 50
0.0
 51
90.0
  0
LINE
  8
7
 10
365.589056
 20
365.500000
 30
0.0
 11
363.589056
 21
365.500000
 31
0.0
  0
LINE
  8
7
 10
365.589056
 20
365.900000
 30
0.0
 11
363.589056
 21
365.900000
 31
0.0
  0
LINE
  8
7
 10
359.589056
 20
362.0
 30
0.0
 11
360.589056
 21
362.0
 31
0.0
  0
LINE
  8
7
 10
359.589056
 20
361.500000
 30
0.0
 11
359.589056
 21
362.0
 31
0.0
  0
LINE
  8
7
 10
361.089056
 20
356.0
 30
0.0
 11
366.089056
 21
356.0
 31
0.0
  0
LINE
  8
7
 10
361.089056
 20
358.500000
 30
0.0
 11
361.089056
 21
356.0
 31
0.0
  0
LINE
  8
7
 10
360.589056
 20
362.200000
 30
0.0
 11
358.289056
 21
362.200000
 31
0.0
  0
LINE
  8
7
 10
366.089056
 20
358.500000
 30
0.0
 11
366.089056
 21
356.0
 31
0.0
  0
LINE
  8
7
 10
363.589056
 20
358.500000
 30
0.0
 11
363.589056
 21
384.500000
 31
0.0
  0
LINE
  8
7
 10
360.589056
 20
362.0
 30
0.0
 11
360.589056
 21
374.0
 31
0.0
  0
LINE
  8
7
 10
365.589056
 20
365.500000
 30
0.0
 11
365.589056
 21
370.500000
 31
0.0
  0
LINE
  8
7
 10
358.289056
 20
362.200000
 30
0.0
 11
358.289056
 21
373.800000
 31
0.0
  0
LINE
  8
7
 10
355.989057
 20
372.599996
 30
0.0
 11
352.989057
 21
372.599996
 31
0.0
  0
LINE
  8
7
 10
352.989060
 20
372.599996
 30
0.0
 11
352.489061
 21
371.899995
 31
0.0
  0
LINE
  8
7
 10
352.489059
 20
371.899998
 30
0.0
 11
352.489059
 21
364.100002
 31
0.0
  0
LINE
  8
7
 10
352.489061
 20
364.100005
 30
0.0
 11
352.989060
 21
363.400004
 31
0.0
  0
LINE
  8
7
 10
352.989057
 20
363.400004
 30
0.0
 11
355.989057
 21
363.400004
 31
0.0
  0
LINE
  8
7
 10
355.989057
 20
363.400001
 30
0.0
 11
355.989057
 21
372.599999
 31
0.0
  0
LINE
  8
7
 10
352.989057
 20
370.300000
 30
0.0
 11
355.989057
 21
370.300000
 31
0.0
  0
LINE
  8
7
 10
352.989057
 20
365.700000
 30
0.0
 11
355.989057
 21
365.700000
 31
0.0
  0
LINE
  8
7
 10
358.289056
 20
373.0
 30
0.0
 11
357.289055
 21
373.0
 31
0.0
  0
LINE
  8
7
 10
357.289056
 20
373.0
 30
0.0
 11
357.289056
 21
363.0
 31
0.0
  0
LINE
  8
7
 10
357.289055
 20
363.0
 30
0.0
 11
358.289056
 21
363.0
 31
0.0
  0
LINE
  8
7
 10
358.289056
 20
363.0
 30
0.0
 11
358.289056
 21
373.0
 31
0.0
  0
LINE
  8
7
 10
355.989055
 20
372.600005
 30
0.0
 11
357.289055
 21
372.600005
 31
0.0
  0
LINE
  8
7
 10
355.989059
 20
363.399998
 30
0.0
 11
357.289055
 21
363.399998
 31
0.0
  0
LINE
  8
7
 10
355.989055
 20
368.300000
 30
0.0
 11
357.289054
 21
368.0
 31
0.0
  0
LINE
  8
7
 10
355.989055
 20
367.699999
 30
0.0
 11
357.289054
 21
367.399999
 31
0.0
  0
POINT
  8
7
 10
358.289056
 20
368.0
 30
0.0
  0
ARC
  8
7
 10
351.089056
 20
405.500000
 30
0.0
 40
0.500000
 50
90.0
 51
180.0
  0
LINE
  8
7
 10
350.589056
 20
405.500000
 30
0.0
 11
350.589056
 21
388.500000
 31
0.0
  0
ARC
  8
7
 10
347.389056
 20
380.700000
 30
0.0
 40
0.800000
 50
90.0
 51
180.0
  0
ARC
  8
7
 10
347.389056
 20
379.800000
 30
0.0
 40
0.800000
 50
180.0
 51
270.0
  0
ARC
  8
7
 10
351.089056
 20
388.500000
 30
0.0
 40
0.500000
 50
180.0
 51
270.0
  0
ARC
  8
7
 10
347.589056
 20
359.500000
 30
0.0
 40
1.0
 50
180.0
 51
270.0
  0
ARC
  8
7
 10
347.389056
 20
360.700000
 30
0.0
 40
0.800000
 50
90.0
 51
180.0
  0
LINE
  8
7
 10
359.589056
 20
388.0
 30
0.0
 11
351.089056
 21
388.0
 31
0.0
  0
LINE
  8
7
 10
359.089056
 20
406.0
 30
0.0
 11
351.089056
 21
406.0
 31
0.0
  0
LINE
  8
7
 10
347.389056
 20
381.500000
 30
0.0
 11
359.589056
 21
381.500000
 31
0.0
  0
LINE
  8
7
 10
358.589056
 20
379.0
 30
0.0
 11
347.389056
 21
379.0
 31
0.0
  0
LINE
  8
7
 10
359.589056
 20
361.500000
 30
0.0
 11
347.389056
 21
361.500000
 31
0.0
  0
POINT
  8
7
 10
361.089056
 20
356.000002
 30
0.0
  0
POINT
  8
7
 10
347.589058
 20
358.500002
 30
0.0
  0
LINE
  8
7
 10
346.589056
 20
359.500000
 30
0.0
 11
346.589056
 21
417.500000
 31
0.0
  0
LINE
  8
7
 10
360.589056
 20
407.500000
 30
0.0
 11
360.589056
 21
414.750000
 31
0.0
  0
POINT
  8
7
 10
347.589058
 20
358.500000
 30
0.0
  0
POINT
  8
7
 10
347.589058
 20
476.500000
 30
0.0
  0
LINE
  8
7
 10
426.789056
 20
358.500000
 30
0.0
 11
347.589056
 21
358.500000
 31
0.0
  0
LINE
  8
7
 10
426.789056
 20
476.500000
 30
0.0
 11
347.589056
 21
476.500000
 31
0.0
  0
LINE
  8
7
 10
427.589056
 20
385.500000
 30
0.0
 11
364.589056
 21
385.500000
 31
0.0
  0
LINE
  8
7
 10
427.589056
 20
449.500000
 30
0.0
 11
364.589056
 21
449.500000
 31
0.0
  0
TEXT
  8
2
 10
391.914378
 20
343.399030
 30
0.0
 40
4.0
  7
CSTEXT
  1
 
 41
1.166667
 72
     5
 11
395.787711
 21
343.399030
 31
0.0
  0
POINT
  8
7
 10
429.889056
 20
357.499997
 30
0.0
  0
POINT
  8
7
 10
358.289050
 20
362.200002
 30
0.0
  0
POINT
  8
7
 10
429.889066
 20
357.499998
 30
0.0
  0
POINT
  8
7
 10
346.589058
 20
359.499998
 30
0.0
  0
LINE
  8
7
 10
261.0
 20
476.500000
 30
0.0
 11
261.0
 21
475.500000
 31
0.0
  0
ARC
  8
7
 10
260.0
 20
475.500000
 30
0.0
 40
1.0
 50
0.0
 51
90.0
  0
ARC
  8
7
 10
260.0
 20
476.500000
 30
0.0
 40
1.0
 50
0.0
 51
90.0
  0
ARC
  8
7
 10
260.200000
 20
454.300000
 30
0.0
 40
0.800000
 50
270.0
 51
360.0
  0
ARC
  8
7
 10
260.200000
 20
455.200000
 30
0.0
 40
0.800000
 50
0.0
 51
90.0
  0
LINE
  8
7
 10
260.800000
 20
472.800000
 30
0.0
 11
260.800000
 21
461.200000
 31
0.0
  0
LINE
  8
7
 10
242.500000
 20
465.500000
 30
0.0
 11
240.500000
 21
465.500000
 31
0.0
  0
LINE
  8
7
 10
240.500000
 20
472.800000
 30
0.0
 11
240.500000
 21
468.500000
 31
0.0
  0
LINE
  8
7
 10
242.500000
 20
472.800000
 30
0.0
 11
242.500000
 21
468.500000
 31
0.0
  0
ARC
  8
7
 10
241.500000
 20
470.0
 30
0.0
 40
1.0
 50
0.0
 51
180.0
  0
ARC
  8
7
 10
241.500000
 20
470.0
 30
0.0
 40
1.0
 50
180.0
 51
360.0
  0
LINE
  8
7
 10
242.500000
 20
468.500000
 30
0.0
 11
240.500000
 21
468.500000
 31
0.0
  0
ARC
  8
7
 10
241.500000
 20
464.0
 30
0.0
 40
1.0
 50
0.0
 51
180.0
  0
ARC
  8
7
 10
241.500000
 20
464.0
 30
0.0
 40
1.0
 50
180.0
 51
360.0
  0
LINE
  8
7
 10
242.500000
 20
461.200000
 30
0.0
 11
242.500000
 21
465.500000
 31
0.0
  0
LINE
  8
7
 10
240.500000
 20
461.200000
 30
0.0
 11
240.500000
 21
465.500000
 31
0.0
  0
ARC
  8
7
 10
247.0
 20
467.0
 30
0.0
 40
1.650000
 50
0.0
 51
180.0
  0
ARC
  8
7
 10
247.0
 20
467.0
 30
0.0
 40
1.650000
 50
180.0
 51
360.0
  0
ARC
  8
7
 10
247.0
 20
467.0
 30
0.0
 40
2.0
 50
0.0
 51
180.0
  0
ARC
  8
7
 10
247.0
 20
467.0
 30
0.0
 40
2.0
 50
180.0
 51
360.0
  0
POINT
  8
7
 10
255.0
 20
467.0
 30
0.0
  0
LINE
  8
7
 10
257.300001
 20
471.0
 30
0.0
 11
259.600000
 21
467.0
 31
0.0
  0
LINE
  8
7
 10
259.600000
 20
467.0
 30
0.0
 11
257.300001
 21
463.0
 31
0.0
  0
LINE
  8
7
 10
257.299999
 20
463.0
 30
0.0
 11
252.700001
 21
463.0
 31
0.0
  0
LINE
  8
7
 10
252.699999
 20
463.0
 30
0.0
 11
250.400000
 21
467.0
 31
0.0
  0
LINE
  8
7
 10
250.400000
 20
467.0
 30
0.0
 11
252.699999
 21
471.0
 31
0.0
  0
LINE
  8
7
 10
252.700001
 20
471.0
 30
0.0
 11
257.299999
 21
471.0
 31
0.0
  0
CIRCLE
  8
7
 10
255.0
 20
467.0
 30
0.0
 40
4.0
  0
CIRCLE
  8
7
 10
255.0
 20
467.0
 30
0.0
 40
5.0
  0
LINE
  8
7
 10
257.250000
 20
440.0
 30
0.0
 11
255.122499
 21
440.0
 31
0.0
  0
ARC
  8
7
 10
257.250000
 20
441.0
 30
0.0
 40
1.0
 50
270.0
 51
360.0
  0
ARC
  8
7
 10
260.0
 20
447.0
 30
0.0
 40
1.0
 50
0.0
 51
90.0
  0
ARC
  8
7
 10
260.200000
 20
417.950000
 30
0.0
 40
0.800000
 50
0.0
 51
90.0
  0
ARC
  8
7
 10
260.200000
 20
417.050000
 30
0.0
 40
0.800000
 50
270.0
 51
360.0
  0
ARC
  8
7
 10
260.0
 20
430.0
 30
0.0
 40
1.0
 50
270.0
 51
360.0
  0
LINE
  8
7
 10
258.250000
 20
446.500000
 30
0.0
 11
258.250000
 21
429.0
 31
0.0
  0
ARC
  8
7
 10
248.500000
 20
445.500000
 30
0.0
 40
1.0
 50
90.0
 51
180.0
  0
LINE
  8
7
 10
247.500000
 20
442.500000
 30
0.0
 11
247.500000
 21
445.500000
 31
0.0
  0
LINE
  8
7
 10
252.0
 20
441.500000
 30
0.0
 11
248.500000
 21
441.500000
 31
0.0
  0
ARC
  8
7
 10
248.500000
 20
442.500000
 30
0.0
 40
1.0
 50
180.0
 51
270.0
  0
LINE
  8
7
 10
245.750000
 20
446.500000
 30
0.0
 11
245.750000
 21
429.0
 31
0.0
  0
ARC
  8
7
 10
252.0
 20
437.500000
 30
0.0
 40
2.750000
 50
0.0
 51
180.0
  0
ARC
  8
7
 10
252.0
 20
437.500000
 30
0.0
 40
2.750000
 50
180.0
 51
360.0
  0
LINE
  8
7
 10
258.250000
 20
446.500000
 30
0.0
 11
245.750000
 21
446.500000
 31
0.0
  0
ARC
  8
7
 10
252.0
 20
437.500000
 30
0.0
 40
4.0
 50
38.682187
 51
90.0
  0
ARC
  8
7
 10
253.0
 20
444.0
 30
0.0
 40
1.500000
 50
0.0
 51
180.0
  0
ARC
  8
7
 10
253.0
 20
444.0
 30
0.0
 40
1.500000
 50
180.0
 51
360.0
  0
LINE
  8
7
 10
227.500000
 20
476.500000
 30
0.0
 11
227.500000
 21
479.0
 31
0.0
  0
LINE
  8
7
 10
227.500000
 20
479.0
 30
0.0
 11
232.500000
 21
479.0
 31
0.0
  0
LINE
  8
7
 10
232.500000
 20
476.500000
 30
0.0
 11
232.500000
 21
479.0
 31
0.0
  0
ARC
  8
7
 10
239.0
 20
457.0
 30
0.0
 40
1.0
 50
180.0
 51
270.0
  0
ARC
  8
7
 10
239.0
 20
452.500000
 30
0.0
 40
1.0
 50
90.0
 51
180.0
  0
LINE
  8
7
 10
238.300000
 20
472.800000
 30
0.0
 11
238.300000
 21
461.200000
 31
0.0
  0
LINE
  8
7
 10
229.624023
 20
470.0
 30
0.0
 11
229.087274
 21
470.0
 31
0.0
  0
LINE
  8
7
 10
229.181850
 20
465.016030
 30
0.0
 11
232.288129
 21
465.125730
 31
0.0
  0
LINE
  8
7
 10
229.245687
 20
468.209720
 30
0.0
 11
232.359690
 21
467.661910
 31
0.0
  0
LINE
  8
7
 10
229.797739
 20
469.700890
 30
0.0
 11
229.500684
 21
469.180220
 31
0.0
  0
ARC
  8
7
 10
229.624023
 20
469.800000
 30
0.0
 40
0.200000
 50
330.294142
 51
449.999868
  0
LINE
  8
7
 10
228.136502
 20
464.774080
 30
0.0
 11
228.515399
 21
464.218340
 31
0.0
  0
ARC
  8
7
 10
228.785563
 20
465.216606
 30
0.0
 40
0.785563
 50
92.022689
 51
214.285976
  0
LINE
  8
7
 10
228.774476
 20
469.818340
 30
0.0
 11
228.618534
 21
469.545010
 31
0.0
  0
ARC
  8
7
 10
229.087268
 20
469.639878
 30
0.0
 40
0.360122
 50
89.999091
 51
150.293366
  0
LINE
  8
7
 10
228.757836
 20
466.001680
 30
0.0
 11
232.252835
 21
466.125100
 31
0.0
  0
LINE
  8
7
 10
229.341636
 20
464.781660
 30
0.0
 11
229.181850
 21
465.016030
 31
0.0
  0
ARC
  8
7
 10
228.928517
 20
464.500000
 30
0.0
 40
0.499999
 50
214.285769
 51
394.285769
  0
ARC
  8
7
 10
229.401963
 20
469.098043
 30
0.0
 40
0.901965
 50
150.294129
 51
260.022459
  0
LINE
  8
7
 10
229.500684
 20
469.180220
 30
0.0
 11
232.532949
 21
468.646780
 31
0.0
  0
ARC
  8
7
 10
232.225500
 20
466.899121
 30
0.0
 40
1.774496
 50
272.022603
 51
440.022603
  0
ARC
  8
7
 10
232.225500
 20
466.899120
 30
0.0
 40
0.774503
 50
272.022604
 51
440.022603
  0
ARC
  8
7
 10
239.0
 20
449.0
 30
0.0
 40
1.0
 50
180.0
 51
270.0
  0
LINE
  8
7
 10
238.0
 20
417.500000
 30
0.0
 11
238.0
 21
476.500000
 31
0.0
  0
ARC
  8
7
 10
210.0
 20
478.500000
 30
0.0
 40
2.0
 50
180.0
 51
270.0
  0
ARC
  8
7
 10
200.0
 20
478.500000
 30
0.0
 40
2.0
 50
270.0
 51
360.0
  0
ARC
  8
7
 10
205.0
 20
478.500000
 30
0.0
 40
3.0
 50
0.0
 51
180.0
  0
ARC
  8
7
 10
205.0
 20
478.500000
 30
0.0
 40
1.0
 50
0.0
 51
180.0
  0
ARC
  8
7
 10
205.0
 20
478.500000
 30
0.0
 40
1.0
 50
180.0
 51
360.0
  0
LINE
  8
7
 10
260.200000
 20
418.750000
 30
0.0
 11
239.500000
 21
418.750000
 31
0.0
  0
LINE
  8
7
 10
260.200000
 20
416.250000
 30
0.0
 11
239.500000
 21
416.250000
 31
0.0
  0
ARC
  8
7
 10
239.500000
 20
414.750000
 30
0.0
 40
1.500000
 50
90.0
 51
180.0
  0
ARC
  8
7
 10
239.500000
 20
420.250000
 30
0.0
 40
1.500000
 50
180.0
 51
270.0
  0
LINE
  8
7
 10
260.0
 20
448.0
 30
0.0
 11
239.0
 21
448.0
 31
0.0
  0
LINE
  8
7
 10
260.0
 20
429.0
 30
0.0
 11
239.500000
 21
429.0
 31
0.0
  0
ARC
  8
7
 10
239.500000
 20
427.500000
 30
0.0
 40
1.500000
 50
90.0
 51
180.0
  0
LINE
  8
7
 10
260.200000
 20
456.0
 30
0.0
 11
239.0
 21
456.0
 31
0.0
  0
LINE
  8
7
 10
261.0
 20
461.0
 30
0.0
 11
238.0
 21
461.0
 31
0.0
  0
LINE
  8
7
 10
261.0
 20
473.0
 30
0.0
 11
238.0
 21
473.0
 31
0.0
  0
LINE
  8
7
 10
260.200000
 20
453.500000
 30
0.0
 11
239.0
 21
453.500000
 31
0.0
  0
LINE
  8
7
 10
260.0
 20
477.500000
 30
0.0
 11
232.500000
 21
477.500000
 31
0.0
  0
LINE
  8
7
 10
260.800000
 20
461.200000
 30
0.0
 11
238.300000
 21
461.200000
 31
0.0
  0
LINE
  8
7
 10
260.800000
 20
472.800000
 30
0.0
 11
238.300000
 21
472.800000
 31
0.0
  0
LINE
  8
7
 10
257.250000
 20
395.0
 30
0.0
 11
255.122499
 21
395.0
 31
0.0
  0
ARC
  8
7
 10
257.250000
 20
394.0
 30
0.0
 40
1.0
 50
0.0
 51
90.0
  0
LINE
  8
7
 10
258.250000
 20
388.500000
 30
0.0
 11
258.250000
 21
406.0
 31
0.0
  0
ARC
  8
7
 10
260.0
 20
405.0
 30
0.0
 40
1.0
 50
0.0
 51
90.0
  0
ARC
  8
7
 10
260.200000
 20
379.800000
 30
0.0
 40
0.800000
 50
270.0
 51
360.0
  0
ARC
  8
7
 10
260.0
 20
388.0
 30
0.0
 40
1.0
 50
270.0
 51
360.0
  0
LINE
  8
7
 10
247.500000
 20
392.500000
 30
0.0
 11
247.500000
 21
389.500000
 31
0.0
  0
ARC
  8
7
 10
248.500000
 20
392.500000
 30
0.0
 40
1.0
 50
90.0
 51
180.0
  0
LINE
  8
7
 10
252.0
 20
393.500000
 30
0.0
 11
248.500000
 21
393.500000
 31
0.0
  0
LINE
  8
7
 10
245.750000
 20
388.500000
 30
0.0
 11
245.750000
 21
406.0
 31
0.0
  0
ARC
  8
7
 10
241.500000
 20
371.0
 30
0.0
 40
1.0
 50
0.0
 51
180.0
  0
ARC
  8
7
 10
241.500000
 20
371.0
 30
0.0
 40
1.0
 50
180.0
 51
360.0
  0
LINE
  8
7
 10
242.500000
 20
369.500000
 30
0.0
 11
240.500000
 21
369.500000
 31
0.0
  0
LINE
  8
7
 10
242.500000
 20
373.800000
 30
0.0
 11
242.500000
 21
369.500000
 31
0.0
  0
LINE
  8
7
 10
240.500000
 20
373.800000
 30
0.0
 11
240.500000
 21
369.500000
 31
0.0
  0
ARC
  8
7
 10
248.500000
 20
389.500000
 30
0.0
 40
1.0
 50
180.0
 51
270.0
  0
ARC
  8
7
 10
252.0
 20
397.500000
 30
0.0
 40
2.750000
 50
0.0
 51
180.0
  0
ARC
  8
7
 10
252.0
 20
397.500000
 30
0.0
 40
2.750000
 50
180.0
 51
360.0
  0
LINE
  8
7
 10
258.250000
 20
388.500000
 30
0.0
 11
245.750000
 21
388.500000
 31
0.0
  0
ARC
  8
7
 10
252.0
 20
397.500000
 30
0.0
 40
4.0
 50
270.0
 51
321.317813
  0
ARC
  8
7
 10
253.0
 20
391.0
 30
0.0
 40
1.500000
 50
0.0
 51
180.0
  0
ARC
  8
7
 10
253.0
 20
391.0
 30
0.0
 40
1.500000
 50
180.0
 51
360.0
  0
LINE
  8
7
 10
261.0
 20
358.500000
 30
0.0
 11
261.0
 21
359.500000
 31
0.0
  0
ARC
  8
7
 10
260.0
 20
359.500000
 30
0.0
 40
1.0
 50
270.0
 51
360.0
  0
ARC
  8
7
 10
260.0
 20
358.500000
 30
0.0
 40
1.0
 50
270.0
 51
360.0
  0
ARC
  8
7
 10
241.500000
 20
365.0
 30
0.0
 40
1.0
 50
0.0
 51
180.0
  0
ARC
  8
7
 10
241.500000
 20
365.0
 30
0.0
 40
1.0
 50
180.0
 51
360.0
  0
LINE
  8
7
 10
242.500000
 20
366.500000
 30
0.0
 11
240.500000
 21
366.500000
 31
0.0
  0
LINE
  8
7
 10
242.500000
 20
362.200000
 30
0.0
 11
242.500000
 21
366.500000
 31
0.0
  0
LINE
  8
7
 10
240.500000
 20
362.200000
 30
0.0
 11
240.500000
 21
366.500000
 31
0.0
  0
ARC
  8
7
 10
247.0
 20
368.0
 30
0.0
 40
2.0
 50
0.0
 51
180.0
  0
ARC
  8
7
 10
247.0
 20
368.0
 30
0.0
 40
2.0
 50
180.0
 51
360.0
  0
ARC
  8
7
 10
247.0
 20
368.0
 30
0.0
 40
1.650000
 50
0.0
 51
180.0
  0
ARC
  8
7
 10
247.0
 20
368.0
 30
0.0
 40
1.650000
 50
180.0
 51
360.0
  0
POINT
  8
7
 10
255.0
 20
368.0
 30
0.0
  0
LINE
  8
7
 10
257.300001
 20
364.0
 30
0.0
 11
259.600000
 21
368.0
 31
0.0
  0
LINE
  8
7
 10
259.600000
 20
368.0
 30
0.0
 11
257.300001
 21
372.0
 31
0.0
  0
LINE
  8
7
 10
257.299999
 20
372.0
 30
0.0
 11
252.700001
 21
372.0
 31
0.0
  0
LINE
  8
7
 10
252.699999
 20
372.0
 30
0.0
 11
250.400000
 21
368.0
 31
0.0
  0
LINE
  8
7
 10
250.400000
 20
368.0
 30
0.0
 11
252.699999
 21
364.0
 31
0.0
  0
LINE
  8
7
 10
252.700001
 20
364.0
 30
0.0
 11
257.299999
 21
364.0
 31
0.0
  0
LINE
  8
7
 10
260.800000
 20
362.200000
 30
0.0
 11
260.800000
 21
373.800000
 31
0.0
  0
POINT
  8
7
 10
261.0
 20
359.499998
 30
0.0
  0
POINT
  8
7
 10
255.0
 20
360.397832
 30
0.0
  0
ARC
  8
7
 10
255.0
 20
267.500000
 30
0.0
 40
3.500000
 50
0.0
 51
180.0
  0
ARC
  8
7
 10
255.0
 20
267.500000
 30
0.0
 40
3.500000
 50
180.0
 51
360.0
  0
ARC
  8
7
 10
239.0
 20
378.0
 30
0.0
 40
1.0
 50
90.0
 51
180.0
  0
ARC
  8
7
 10
239.0
 20
382.500000
 30
0.0
 40
1.0
 50
180.0
 51
270.0
  0
ARC
  8
7
 10
239.0
 20
386.0
 30
0.0
 40
1.0
 50
90.0
 51
180.0
  0
ARC
  8
7
 10
232.966687
 20
369.966686
 30
0.0
 40
1.033314
 50
296.509024
 51
449.999989
  0
ARC
  8
7
 10
232.966687
 20
369.966692
 30
0.0
 40
0.033312
 50
269.999282
 51
406.760353
  0
ARC
  8
7
 10
228.500000
 20
369.433380
 30
0.0
 40
0.500000
 50
90.0
 51
270.0
  0
LINE
  8
7
 10
228.500000
 20
368.933380
 30
0.0
 11
231.526629
 21
368.933380
 31
0.0
  0
LINE
  8
7
 10
232.966687
 20
369.933380
 30
0.0
 11
228.500000
 21
369.933380
 31
0.0
  0
LINE
  8
7
 10
232.681550
 20
370.280540
 30
0.0
 11
232.989508
 21
369.990960
 31
0.0
  0
ARC
  8
7
 10
232.966687
 20
370.583767
 30
0.0
 40
0.416233
 50
90.000009
 51
226.761080
  0
LINE
  8
7
 10
231.533314
 20
365.0
 30
0.0
 11
228.455991
 21
365.0
 31
0.0
  0
LINE
  8
7
 10
228.432050
 20
365.998020
 30
0.0
 11
231.511032
 21
366.000170
 31
0.0
  0
ARC
  8
7
 10
228.500000
 20
365.498060
 30
0.0
 40
0.500000
 50
90.040107
 51
270.040107
  0
LINE
  8
7
 10
227.500000
 20
356.0
 30
0.0
 11
232.500000
 21
356.0
 31
0.0
  0
LINE
  8
7
 10
227.500000
 20
358.500000
 30
0.0
 11
227.500000
 21
356.0
 31
0.0
  0
LINE
  8
7
 10
232.500000
 20
358.500000
 30
0.0
 11
232.500000
 21
356.0
 31
0.0
  0
ARC
  8
7
 10
231.533313
 20
367.466689
 30
0.0
 40
2.466689
 50
270.000026
 51
399.728390
  0
ARC
  8
7
 10
231.533314
 20
367.466690
 30
0.0
 40
1.466690
 50
269.129539
 51
449.999988
  0
LINE
  8
7
 10
238.300000
 20
362.200000
 30
0.0
 11
238.300000
 21
373.800000
 31
0.0
  0
LINE
  8
7
 10
260.0
 20
406.0
 30
0.0
 11
239.500000
 21
406.0
 31
0.0
  0
ARC
  8
7
 10
239.500000
 20
407.500000
 30
0.0
 40
1.500000
 50
180.0
 51
270.0
  0
LINE
  8
7
 10
261.0
 20
374.0
 30
0.0
 11
238.0
 21
374.0
 31
0.0
  0
LINE
  8
7
 10
261.0
 20
362.0
 30
0.0
 11
238.0
 21
362.0
 31
0.0
  0
LINE
  8
7
 10
261.0
 20
381.500000
 30
0.0
 11
239.0
 21
381.500000
 31
0.0
  0
LINE
  8
7
 10
260.200000
 20
379.0
 30
0.0
 11
239.0
 21
379.0
 31
0.0
  0
LINE
  8
7
 10
260.0
 20
387.0
 30
0.0
 11
239.0
 21
387.0
 31
0.0
  0
LINE
  8
7
 10
260.800000
 20
373.800000
 30
0.0
 11
238.300000
 21
373.800000
 31
0.0
  0
LINE
  8
7
 10
260.800000
 20
362.200000
 30
0.0
 11
238.300000
 21
362.200000
 31
0.0
  0
LINE
  8
7
 10
260.0
 20
357.500000
 30
0.0
 11
232.500000
 21
357.500000
 31
0.0
  0
LINE
  8
7
 10
261.0
 20
359.500000
 30
0.0
 11
261.0
 21
475.500000
 31
0.0
  0
LINE
  8
7
 10
238.0
 20
358.500000
 30
0.0
 11
238.0
 21
417.500000
 31
0.0
  0
POINT
  8
7
 10
262.433514
 20
368.0
 30
0.0
  0
POINT
  8
7
 10
262.433514
 20
467.0
 30
0.0
  0
LINE
  8
7
 10
182.500000
 20
476.500000
 30
0.0
 11
182.500000
 21
479.0
 31
0.0
  0
LINE
  8
7
 10
177.500000
 20
476.500000
 30
0.0
 11
177.500000
 21
479.0
 31
0.0
  0
LINE
  8
7
 10
182.500000
 20
479.0
 30
0.0
 11
177.500000
 21
479.0
 31
0.0
  0
ARC
  8
7
 10
180.716354
 20
457.500005
 30
0.0
 40
1.283648
 50
294.565051
 51
425.434949
  0
ARC
  8
7
 10
172.750001
 20
461.728160
 30
0.0
 40
0.750002
 50
65.435037
 51
245.435037
  0
LINE
  8
7
 10
181.250000
 20
458.667470
 30
0.0
 11
173.061795
 21
462.410280
 31
0.0
  0
LINE
  8
7
 10
180.195928
 20
457.500000
 30
0.0
 11
172.438206
 21
461.046040
 31
0.0
  0
LINE
  8
7
 10
180.195928
 20
457.500000
 30
0.0
 11
172.438206
 21
453.953960
 31
0.0
  0
LINE
  8
7
 10
181.250000
 20
456.332540
 30
0.0
 11
173.061795
 21
452.589730
 31
0.0
  0
ARC
  8
7
 10
167.500000
 20
461.500000
 30
0.0
 40
1.500000
 50
270.0
 51
360.0
  0
ARC
  8
7
 10
167.500000
 20
472.0
 30
0.0
 40
1.500000
 50
0.0
 51
90.0
  0
ARC
  8
7
 10
157.0
 20
446.500000
 30
0.0
 40
1.0
 50
0.0
 51
180.0
  0
ARC
  8
7
 10
157.0
 20
446.500000
 30
0.0
 40
1.0
 50
180.0
 51
360.0
  0
ARC
  8
7
 10
167.500000
 20
420.250000
 30
0.0
 40
1.500000
 50
270.0
 51
360.0
  0
ARC
  8
7
 10
167.500000
 20
414.750000
 30
0.0
 40
1.500000
 50
0.0
 51
90.0
  0
ARC
  8
7
 10
167.500000
 20
427.500000
 30
0.0
 40
1.500000
 50
0.0
 51
90.0
  0
LINE
  8
7
 10
169.0
 20
417.500000
 30
0.0
 11
169.0
 21
476.500000
 31
0.0
  0
ARC
  8
7
 10
172.750001
 20
453.271845
 30
0.0
 40
0.749998
 50
114.565122
 51
294.565122
  0
LINE
  8
7
 10
163.0
 20
430.500000
 30
0.0
 11
163.0
 21
459.500000
 31
0.0
  0
ARC
  8
7
 10
150.0
 20
475.500000
 30
0.0
 40
1.0
 50
90.0
 51
180.0
  0
LINE
  8
7
 10
149.0
 20
476.500000
 30
0.0
 11
149.0
 21
475.500000
 31
0.0
  0
ARC
  8
7
 10
150.0
 20
476.500000
 30
0.0
 40
1.0
 50
90.0
 51
180.0
  0
ARC
  8
7
 10
149.500000
 20
459.500000
 30
0.0
 40
0.500000
 50
90.0
 51
180.0
  0
ARC
  8
7
 10
149.800000
 20
474.300000
 30
0.0
 40
0.800000
 50
180.0
 51
270.0
  0
ARC
  8
7
 10
149.500000
 20
429.500000
 30
0.0
 40
0.500000
 50
180.0
 51
270.0
  0
ARC
  8
7
 10
149.800000
 20
417.950000
 30
0.0
 40
0.800000
 50
90.0
 51
180.0
  0
ARC
  8
7
 10
149.800000
 20
417.050000
 30
0.0
 40
0.800000
 50
180.0
 51
270.0
  0
LINE
  8
7
 10
151.0
 20
430.500000
 30
0.0
 11
151.0
 21
459.500000
 31
0.0
  0
LINE
  8
7
 10
167.500000
 20
460.0
 30
0.0
 11
149.500000
 21
460.0
 31
0.0
  0
LINE
  8
7
 10
149.800000
 20
473.500000
 30
0.0
 11
167.500000
 21
473.500000
 31
0.0
  0
LINE
  8
7
 10
149.800000
 20
416.250000
 30
0.0
 11
167.500000
 21
416.250000
 31
0.0
  0
LINE
  8
7
 10
149.800000
 20
418.750000
 30
0.0
 11
167.500000
 21
418.750000
 31
0.0
  0
LINE
  8
7
 10
149.500000
 20
429.0
 30
0.0
 11
167.500000
 21
429.0
 31
0.0
  0
LINE
  8
7
 10
155.302945
 20
439.197057
 30
0.0
 11
158.697055
 21
435.802943
 31
0.0
  0
LINE
  8
7
 10
158.697058
 20
439.197054
 30
0.0
 11
155.302942
 21
435.802946
 31
0.0
  0
POINT
  8
7
 10
157.0
 20
437.500000
 30
0.0
  0
CIRCLE
  8
7
 10
157.0
 20
437.500000
 30
0.0
 40
5.0
  0
CIRCLE
  8
7
 10
157.0
 20
437.500000
 30
0.0
 40
4.500000
  0
LINE
  8
7
 10
150.0
 20
477.500000
 30
0.0
 11
177.500000
 21
477.500000
 31
0.0
  0
LINE
  8
7
 10
163.0
 20
445.500000
 30
0.0
 11
155.0
 21
445.500000
 31
0.0
  0
LINE
  8
7
 10
163.0
 20
447.500000
 30
0.0
 11
155.0
 21
447.500000
 31
0.0
  0
LINE
  8
7
 10
155.0
 20
445.500000
 30
0.0
 11
155.0
 21
447.500000
 31
0.0
  0
POINT
  8
6
 10
157.0
 20
453.500000
 30
0.0
  0
LINE
  8
7
 10
159.300001
 20
457.500000
 30
0.0
 11
161.600000
 21
453.500000
 31
0.0
  0
LINE
  8
7
 10
161.600000
 20
453.500000
 30
0.0
 11
159.300001
 21
449.500000
 31
0.0
  0
LINE
  8
7
 10
159.299999
 20
449.500000
 30
0.0
 11
154.700001
 21
449.500000
 31
0.0
  0
LINE
  8
7
 10
154.699999
 20
449.500000
 30
0.0
 11
152.400000
 21
453.500000
 31
0.0
  0
LINE
  8
7
 10
152.400000
 20
453.500000
 30
0.0
 11
154.699999
 21
457.500000
 31
0.0
  0
LINE
  8
7
 10
154.700001
 20
457.500000
 30
0.0
 11
159.299999
 21
457.500000
 31
0.0
  0
CIRCLE
  8
7
 10
157.0
 20
453.500000
 30
0.0
 40
4.0
  0
CIRCLE
  8
7
 10
157.0
 20
453.500000
 30
0.0
 40
5.0
  0
LINE
  8
7
 10
163.0
 20
459.500000
 30
0.0
 11
151.0
 21
459.500000
 31
0.0
  0
LINE
  8
7
 10
163.0
 20
430.500000
 30
0.0
 11
151.0
 21
430.500000
 31
0.0
  0
ARC
  8
7
 10
177.0
 20
377.500000
 30
0.0
 40
5.0
 50
270.0
 51
450.0
  0
ARC
  8
7
 10
177.0
 20
377.500000
 30
0.0
 40
3.500000
 50
270.0
 51
450.0
  0
ARC
  8
7
 10
172.750000
 20
381.750000
 30
0.0
 40
0.750000
 50
90.0
 51
270.0
  0
ARC
  8
7
 10
172.750000
 20
373.250000
 30
0.0
 40
0.750000
 50
90.0
 51
270.0
  0
LINE
  8
7
 10
177.0
 20
372.500000
 30
0.0
 11
172.750000
 21
372.500000
 31
0.0
  0
LINE
  8
7
 10
177.0
 20
382.500000
 30
0.0
 11
172.750000
 21
382.500000
 31
0.0
  0
LINE
  8
7
 10
177.0
 20
381.0
 30
0.0
 11
172.750000
 21
381.0
 31
0.0
  0
LINE
  8
7
 10
177.0
 20
374.0
 30
0.0
 11
172.750000
 21
374.0
 31
0.0
  0
LINE
  8
7
 10
163.0
 20
404.500000
 30
0.0
 11
163.0
 21
375.500000
 31
0.0
  0
ARC
  8
7
 10
157.0
 20
388.500000
 30
0.0
 40
1.0
 50
0.0
 51
180.0
  0
ARC
  8
7
 10
157.0
 20
388.500000
 30
0.0
 40
1.0
 50
180.0
 51
360.0
  0
ARC
  8
7
 10
167.500000
 20
407.500000
 30
0.0
 40
1.500000
 50
270.0
 51
360.0
  0
ARC
  8
7
 10
167.500000
 20
373.500000
 30
0.0
 40
1.500000
 50
0.0
 51
90.0
  0
LINE
  8
7
 10
182.500000
 20
356.0
 30
0.0
 11
177.500000
 21
356.0
 31
0.0
  0
LINE
  8
7
 10
182.500000
 20
358.500000
 30
0.0
 11
182.500000
 21
356.0
 31
0.0
  0
LINE
  8
7
 10
177.500000
 20
358.500000
 30
0.0
 11
177.500000
 21
356.0
 31
0.0
  0
ARC
  8
7
 10
167.500000
 20
363.0
 30
0.0
 40
1.500000
 50
270.0
 51
360.0
  0
ARC
  8
7
 10
149.500000
 20
405.500000
 30
0.0
 40
0.500000
 50
90.0
 51
180.0
  0
ARC
  8
7
 10
149.500000
 20
375.500000
 30
0.0
 40
0.500000
 50
180.0
 51
270.0
  0
LINE
  8
7
 10
151.0
 20
404.500000
 30
0.0
 11
151.0
 21
375.500000
 31
0.0
  0
LINE
  8
7
 10
151.0
 20
404.500000
 30
0.0
 11
151.0
 21
375.500000
 31
0.0
  0
ARC
  8
7
 10
150.0
 20
359.500000
 30
0.0
 40
1.0
 50
180.0
 51
270.0
  0
ARC
  8
7
 10
149.800000
 20
360.700000
 30
0.0
 40
0.800000
 50
90.0
 51
180.0
  0
LINE
  8
7
 10
149.0
 20
358.500000
 30
0.0
 11
149.0
 21
359.500000
 31
0.0
  0
ARC
  8
7
 10
150.0
 20
358.500000
 30
0.0
 40
1.0
 50
180.0
 51
270.0
  0
LINE
  8
7
 10
149.500000
 20
406.0
 30
0.0
 11
167.500000
 21
406.0
 31
0.0
  0
LINE
  8
7
 10
167.500000
 20
375.0
 30
0.0
 11
149.500000
 21
375.0
 31
0.0
  0
LINE
  8
7
 10
149.800000
 20
361.500000
 30
0.0
 11
167.500000
 21
361.500000
 31
0.0
  0
LINE
  8
7
 10
155.302945
 20
395.802943
 30
0.0
 11
158.697055
 21
399.197057
 31
0.0
  0
LINE
  8
7
 10
158.697058
 20
395.802946
 30
0.0
 11
155.302942
 21
399.197054
 31
0.0
  0
POINT
  8
7
 10
157.0
 20
397.500000
 30
0.0
  0
LINE
  8
7
 10
163.0
 20
404.500000
 30
0.0
 11
151.0
 21
404.500000
 31
0.0
  0
LINE
  8
7
 10
163.0
 20
375.500000
 30
0.0
 11
151.0
 21
375.500000
 31
0.0
  0
LINE
  8
7
 10
155.0
 20
389.500000
 30
0.0
 11
155.0
 21
387.500000
 31
0.0
  0
LINE
  8
7
 10
163.0
 20
389.500000
 30
0.0
 11
155.0
 21
389.500000
 31
0.0
  0
LINE
  8
7
 10
163.0
 20
387.500000
 30
0.0
 11
155.0
 21
387.500000
 31
0.0
  0
POINT
  8
6
 10
157.0
 20
381.500000
 30
0.0
  0
LINE
  8
7
 10
159.300001
 20
377.500000
 30
0.0
 11
161.600000
 21
381.500000
 31
0.0
  0
LINE
  8
7
 10
161.600000
 20
381.500000
 30
0.0
 11
159.300001
 21
385.500000
 31
0.0
  0
LINE
  8
7
 10
159.299999
 20
385.500000
 30
0.0
 11
154.700001
 21
385.500000
 31
0.0
  0
LINE
  8
7
 10
154.699999
 20
385.500000
 30
0.0
 11
152.400000
 21
381.500000
 31
0.0
  0
LINE
  8
7
 10
152.400000
 20
381.500000
 30
0.0
 11
154.699999
 21
377.500000
 31
0.0
  0
LINE
  8
7
 10
154.700001
 20
377.500000
 30
0.0
 11
159.299999
 21
377.500000
 31
0.0
  0
LINE
  8
7
 10
150.0
 20
357.500000
 30
0.0
 11
177.500000
 21
357.500000
 31
0.0
  0
POINT
  8
7
 10
149.000008
 20
359.499998
 30
0.0
  0
POINT
  8
7
 10
157.000008
 20
373.758558
 30
0.0
  0
ARC
  8
7
 10
155.0
 20
267.500000
 30
0.0
 40
3.500000
 50
0.0
 51
180.0
  0
ARC
  8
7
 10
155.0
 20
267.500000
 30
0.0
 40
3.500000
 50
180.0
 51
360.0
  0
LINE
  8
7
 10
149.0
 20
475.500000
 30
0.0
 11
149.0
 21
359.500000
 31
0.0
  0
LINE
  8
7
 10
169.0
 20
358.500000
 30
0.0
 11
169.0
 21
417.500000
 31
0.0
  0
POINT
  8
7
 10
150.477837
 20
381.500000
 30
0.0
  0
POINT
  8
7
 10
150.477837
 20
453.500000
 30
0.0
  0
LINE
  8
7
 10
150.0
 20
476.500000
 30
0.0
 11
260.0
 21
476.500000
 31
0.0
  0
LINE
  8
7
 10
150.0
 20
358.500000
 30
0.0
 11
260.0
 21
358.500000
 31
0.0
  0
POINT
  8
7
 10
261.0
 20
359.499998
 30
0.0
  0
POINT
  8
7
 10
149.000008
 20
359.499998
 30
0.0
  0
ARC
  8
7
 10
255.0
 20
167.500001
 30
0.0
 40
3.500000
 50
0.0
 51
180.0
  0
ARC
  8
7
 10
255.0
 20
167.500001
 30
0.0
 40
3.500000
 50
180.0
 51
360.0
  0
ARC
  8
7
 10
155.0
 20
167.500001
 30
0.0
 40
3.500000
 50
0.0
 51
180.0
  0
ARC
  8
7
 10
155.0
 20
167.500001
 30
0.0
 40
3.500000
 50
180.0
 51
360.0
  0
POINT
  8
7
 10
255.0
 20
159.999997
 30
0.0
  0
POINT
  8
7
 10
154.999992
 20
159.999997
 30
0.0
  0
LINE
  8
1
 10
146.477837
 20
453.500000
 30
0.0
 11
129.062233
 21
453.500000
 31
0.0
  0
LINE
  8
1
 10
146.477837
 20
381.500000
 30
0.0
 11
129.062233
 21
381.500000
 31
0.0
  0
LINE
  8
1
 10
131.062233
 20
449.500000
 30
0.0
 11
131.062233
 21
385.500000
 31
0.0
  0
LINE
  8
0
 10
129.990436
 20
449.500000
 30
0.0
 11
131.062233
 21
453.500000
 31
0.0
  0
LINE
  8
0
 10
131.062233
 20
453.500000
 30
0.0
 11
132.134030
 21
449.500000
 31
0.0
  0
LINE
  8
0
 10
131.062233
 20
453.500000
 30
0.0
 11
131.062233
 21
449.500000
 31
0.0
  0
LINE
  8
0
 10
132.134030
 20
385.500000
 30
0.0
 11
131.062233
 21
381.500000
 31
0.0
  0
LINE
  8
0
 10
131.062233
 20
381.500000
 30
0.0
 11
129.990436
 21
385.500000
 31
0.0
  0
LINE
  8
0
 10
131.062233
 20
381.500000
 30
0.0
 11
131.062233
 21
385.500000
 31
0.0
  0
TEXT
  8
1
 62
     7
 10
129.062233
 20
413.350000
 30
0.0
 40
5.0
  7
CSTEXT
  1
72
 50
90.0
 72
     5
 11
129.062233
 21
421.650000
 31
0.0
  0
LINE
  8
1
 10
154.700004
 20
377.500000
 30
0.0
 11
136.336098
 21
357.279410
 31
0.0
  0
LINE
  8
1
 10
153.752112
 20
375.659161
 30
0.0
 11
154.700004
 21
377.500000
 31
0.0
  0
LINE
  8
1
 10
154.700004
 20
377.500000
 30
0.0
 11
152.958684
 21
376.379735
 31
0.0
  0
LINE
  8
1
 10
152.958684
 20
376.379735
 30
0.0
 11
153.752112
 21
375.659161
 31
0.0
  0
LINE
  8
1
 10
157.000008
 20
369.758558
 30
0.0
 11
157.000008
 21
330.399030
 31
0.0
  0
LINE
  8
1
 10
149.000008
 20
355.499998
 30
0.0
 11
149.000008
 21
330.399030
 31
0.0
  0
LINE
  8
1
 10
161.000008
 20
332.399030
 30
0.0
 11
165.000008
 21
332.399030
 31
0.0
  0
LINE
  8
1
 10
145.000008
 20
332.399030
 30
0.0
 11
134.333341
 21
332.399030
 31
0.0
  0
LINE
  8
1
 10
157.000008
 20
332.399030
 30
0.0
 11
149.000008
 21
332.399030
 31
0.0
  0
LINE
  8
0
 10
161.000008
 20
331.327233
 30
0.0
 11
157.000008
 21
332.399030
 31
0.0
  0
LINE
  8
0
 10
157.000008
 20
332.399030
 30
0.0
 11
161.000008
 21
333.470827
 31
0.0
  0
LINE
  8
0
 10
157.000008
 20
332.399030
 30
0.0
 11
161.000008
 21
332.399030
 31
0.0
  0
LINE
  8
0
 10
145.000008
 20
333.470827
 30
0.0
 11
149.000008
 21
332.399030
 31
0.0
  0
LINE
  8
0
 10
149.000008
 20
332.399030
 30
0.0
 11
145.000008
 21
331.327233
 31
0.0
  0
LINE
  8
0
 10
149.000008
 20
332.399030
 30
0.0
 11
145.000008
 21
332.399030
 31
0.0
  0
TEXT
  8
1
 62
     7
 10
135.591675
 20
334.399030
 30
0.0
 40
5.0
  7
CSTEXT
  1
8
 72
     5
 11
139.741675
 21
334.399030
 31
0.0
  0
LINE
  8
1
 10
149.000008
 20
355.499998
 30
0.0
 11
149.000008
 21
321.399030
 31
0.0
  0
LINE
  8
1
 10
261.0
 20
355.499998
 30
0.0
 11
261.0
 21
321.399030
 31
0.0
  0
LINE
  8
1
 10
153.000008
 20
323.399030
 30
0.0
 11
257.0
 21
323.399030
 31
0.0
  0
LINE
  8
0
 10
153.000008
 20
322.327233
 30
0.0
 11
149.000008
 21
323.399030
 31
0.0
  0
LINE
  8
0
 10
149.000008
 20
323.399030
 30
0.0
 11
153.000008
 21
324.470827
 31
0.0
  0
LINE
  8
0
 10
149.000008
 20
323.399030
 30
0.0
 11
153.000008
 21
323.399030
 31
0.0
  0
LINE
  8
0
 10
257.0
 20
324.470827
 30
0.0
 11
261.0
 21
323.399030
 31
0.0
  0
LINE
  8
0
 10
261.0
 20
323.399030
 30
0.0
 11
257.0
 21
322.327233
 31
0.0
  0
LINE
  8
0
 10
261.0
 20
323.399030
 30
0.0
 11
257.0
 21
323.399030
 31
0.0
  0
TEXT
  8
1
 62
     7
 10
198.775004
 20
325.399030
 30
0.0
 40
5.0
  7
CSTEXT
  1
112
 72
     5
 11
211.225004
 21
325.399030
 31
0.0
  0
LINE
  8
1
 10
255.0
 20
356.397832
 30
0.0
 11
255.0
 21
330.399030
 31
0.0
  0
LINE
  8
1
 10
261.0
 20
355.499998
 30
0.0
 11
261.0
 21
330.399030
 31
0.0
  0
LINE
  8
1
 10
251.0
 20
332.399030
 30
0.0
 11
247.0
 21
332.399030
 31
0.0
  0
LINE
  8
1
 10
265.0
 20
332.399030
 30
0.0
 11
275.666667
 21
332.399030
 31
0.0
  0
LINE
  8
1
 10
255.0
 20
332.399030
 30
0.0
 11
261.0
 21
332.399030
 31
0.0
  0
LINE
  8
0
 10
251.0
 20
333.470827
 30
0.0
 11
255.0
 21
332.399030
 31
0.0
  0
LINE
  8
0
 10
255.0
 20
332.399030
 30
0.0
 11
251.0
 21
331.327233
 31
0.0
  0
LINE
  8
0
 10
255.0
 20
332.399030
 30
0.0
 11
251.0
 21
332.399030
 31
0.0
  0
LINE
  8
0
 10
265.0
 20
331.327233
 30
0.0
 11
261.0
 21
332.399030
 31
0.0
  0
LINE
  8
0
 10
261.0
 20
332.399030
 30
0.0
 11
265.0
 21
333.470827
 31
0.0
  0
LINE
  8
0
 10
261.0
 20
332.399030
 30
0.0
 11
265.0
 21
332.399030
 31
0.0
  0
TEXT
  8
1
 62
     7
 10
270.258333
 20
334.399030
 30
0.0
 40
5.0
  7
CSTEXT
  1
6
 72
     5
 11
274.408333
 21
334.399030
 31
0.0
  0
LINE
  8
1
 10
266.433514
 20
467.0
 30
0.0
 11
284.418870
 21
467.0
 31
0.0
  0
LINE
  8
1
 10
266.433514
 20
368.0
 30
0.0
 11
284.418870
 21
368.0
 31
0.0
  0
LINE
  8
1
 10
282.418870
 20
463.0
 30
0.0
 11
282.418870
 21
372.0
 31
0.0
  0
LINE
  8
0
 10
281.347073
 20
463.0
 30
0.0
 11
282.418870
 21
467.0
 31
0.0
  0
LINE
  8
0
 10
282.418870
 20
467.0
 30
0.0
 11
283.490667
 21
463.0
 31
0.0
  0
LINE
  8
0
 10
282.418870
 20
467.0
 30
0.0
 11
282.418870
 21
463.0
 31
0.0
  0
LINE
  8
0
 10
283.490667
 20
372.0
 30
0.0
 11
282.418870
 21
368.0
 31
0.0
  0
LINE
  8
0
 10
282.418870
 20
368.0
 30
0.0
 11
281.347073
 21
372.0
 31
0.0
  0
LINE
  8
0
 10
282.418870
 20
368.0
 30
0.0
 11
282.418870
 21
372.0
 31
0.0
  0
TEXT
  8
1
 62
     7
 10
280.418870
 20
413.350000
 30
0.0
 40
5.0
  7
CSTEXT
  1
99
 50
90.0
 72
     5
 11
280.418870
 21
421.650000
 31
0.0
  0
LINE
  8
1
 10
205.0
 20
479.500000
 30
0.0
 11
224.166861
 21
492.360280
 31
0.0
  0
LINE
  8
1
 10
206.362212
 20
481.059348
 30
0.0
 11
205.0
 21
479.500000
 31
0.0
  0
LINE
  8
1
 10
205.0
 20
479.500000
 30
0.0
 11
206.959386
 21
480.169326
 31
0.0
  0
LINE
  8
1
 10
206.959386
 20
480.169326
 30
0.0
 11
206.362212
 21
481.059348
 31
0.0
  0
LINE
  8
1
 10
258.450001
 20
469.0
 30
0.0
 11
277.372729
 21
485.885570
 31
0.0
  0
LINE
  8
1
 10
259.585454
 20
470.731455
 30
0.0
 11
258.450001
 21
469.0
 31
0.0
  0
LINE
  8
1
 10
258.450001
 20
469.0
 30
0.0
 11
260.299061
 21
469.931755
 31
0.0
  0
LINE
  8
1
 10
260.299061
 20
469.931755
 30
0.0
 11
259.585454
 21
470.731455
 31
0.0
  0
LINE
  8
1
 10
343.589058
 20
476.500005
 30
0.0
 11
319.497627
 21
476.500005
 31
0.0
  0
LINE
  8
1
 10
343.589058
 20
358.500002
 30
0.0
 11
319.497627
 21
358.500002
 31
0.0
  0
LINE
  8
1
 10
321.497627
 20
472.500005
 30
0.0
 11
321.497627
 21
362.500002
 31
0.0
  0
LINE
  8
0
 10
320.425830
 20
472.500005
 30
0.0
 11
321.497627
 21
476.500005
 31
0.0
  0
LINE
  8
0
 10
321.497627
 20
476.500005
 30
0.0
 11
322.569424
 21
472.500005
 31
0.0
  0
LINE
  8
0
 10
321.497627
 20
476.500005
 30
0.0
 11
321.497627
 21
472.500005
 31
0.0
  0
LINE
  8
0
 10
322.569424
 20
362.500002
 30
0.0
 11
321.497627
 21
358.500002
 31
0.0
  0
LINE
  8
0
 10
321.497627
 20
358.500002
 30
0.0
 11
320.425830
 21
362.500002
 31
0.0
  0
LINE
  8
0
 10
321.497627
 20
358.500002
 30
0.0
 11
321.497627
 21
362.500002
 31
0.0
  0
TEXT
  8
1
 62
     7
 10
319.497627
 20
411.275003
 30
0.0
 40
5.0
  7
CSTEXT
  1
118
 50
90.0
 72
     5
 11
319.497627
 21
423.725003
 31
0.0
  0
LINE
  8
1
 10
343.589058
 20
476.500000
 30
0.0
 11
319.497626
 21
476.500000
 31
0.0
  0
LINE
  8
1
 10
376.589054
 20
481.500005
 30
0.0
 11
319.497626
 21
481.500005
 31
0.0
  0
LINE
  8
1
 10
321.497626
 20
472.500000
 30
0.0
 11
321.497626
 21
468.500000
 31
0.0
  0
LINE
  8
1
 10
321.497626
 20
485.500005
 30
0.0
 11
321.497626
 21
496.166671
 31
0.0
  0
LINE
  8
1
 10
321.497626
 20
476.500000
 30
0.0
 11
321.497626
 21
481.500005
 31
0.0
  0
LINE
  8
0
 10
320.425829
 20
472.500000
 30
0.0
 11
321.497626
 21
476.500000
 31
0.0
  0
LINE
  8
0
 10
321.497626
 20
476.500000
 30
0.0
 11
322.569423
 21
472.500000
 31
0.0
  0
LINE
  8
0
 10
321.497626
 20
476.500000
 30
0.0
 11
321.497626
 21
472.500000
 31
0.0
  0
LINE
  8
0
 10
322.569423
 20
485.500005
 30
0.0
 11
321.497626
 21
481.500005
 31
0.0
  0
LINE
  8
0
 10
321.497626
 20
481.500005
 30
0.0
 11
320.425829
 21
485.500005
 31
0.0
  0
LINE
  8
0
 10
321.497626
 20
481.500005
 30
0.0
 11
321.497626
 21
485.500005
 31
0.0
  0
TEXT
  8
1
 62
     7
 10
319.497626
 20
490.758338
 30
0.0
 40
5.0
  7
CSTEXT
  1
5
 50
90.0
 72
     5
 11
319.497626
 21
494.908338
 31
0.0
  0
LINE
  8
1
 10
343.589058
 20
358.500002
 30
0.0
 11
319.497626
 21
358.500002
 31
0.0
  0
LINE
  8
1
 10
357.089056
 20
356.000002
 30
0.0
 11
319.497626
 21
356.000002
 31
0.0
  0
LINE
  8
1
 10
321.497626
 20
362.500002
 30
0.0
 11
321.497626
 21
366.500002
 31
0.0
  0
LINE
  8
1
 10
321.497626
 20
352.000002
 30
0.0
 11
321.497626
 21
334.666669
 31
0.0
  0
LINE
  8
1
 10
321.497626
 20
358.500002
 30
0.0
 11
321.497626
 21
356.000002
 31
0.0
  0
LINE
  8
0
 10
322.569423
 20
362.500002
 30
0.0
 11
321.497626
 21
358.500002
 31
0.0
  0
LINE
  8
0
 10
321.497626
 20
358.500002
 30
0.0
 11
320.425829
 21
362.500002
 31
0.0
  0
LINE
  8
0
 10
321.497626
 20
358.500002
 30
0.0
 11
321.497626
 21
362.500002
 31
0.0
  0
LINE
  8
0
 10
320.425829
 20
352.000002
 30
0.0
 11
321.497626
 21
356.000002
 31
0.0
  0
LINE
  8
0
 10
321.497626
 20
356.000002
 30
0.0
 11
322.569423
 21
352.000002
 31
0.0
  0
LINE
  8
0
 10
321.497626
 20
356.000002
 30
0.0
 11
321.497626
 21
352.000002
 31
0.0
  0
TEXT
  8
1
 62
     7
 10
319.497626
 20
335.108335
 30
0.0
 40
5.0
  7
CSTEXT
  1
2.5
 50
90.0
 72
     5
 11
319.497626
 21
347.558335
 31
0.0
  0
LINE
  8
1
 10
427.589062
 20
481.499999
 30
0.0
 11
427.589062
 21
493.188140
 31
0.0
  0
LINE
  8
1
 10
429.889065
 20
481.499999
 30
0.0
 11
429.889065
 21
493.188140
 31
0.0
  0
LINE
  8
1
 10
423.589062
 20
491.188140
 30
0.0
 11
419.589062
 21
491.188140
 31
0.0
  0
LINE
  8
1
 10
433.889065
 20
491.188140
 30
0.0
 11
451.222399
 21
491.188140
 31
0.0
  0
LINE
  8
1
 10
427.589062
 20
491.188140
 30
0.0
 11
429.889065
 21
491.188140
 31
0.0
  0
LINE
  8
0
 10
423.589062
 20
492.259937
 30
0.0
 11
427.589062
 21
491.188140
 31
0.0
  0
LINE
  8
0
 10
427.589062
 20
491.188140
 30
0.0
 11
423.589062
 21
490.116343
 31
0.0
  0
LINE
  8
0
 10
427.589062
 20
491.188140
 30
0.0
 11
423.589062
 21
491.188140
 31
0.0
  0
LINE
  8
0
 10
433.889065
 20
490.116343
 30
0.0
 11
429.889065
 21
491.188140
 31
0.0
  0
LINE
  8
0
 10
429.889065
 20
491.188140
 30
0.0
 11
433.889065
 21
492.259937
 31
0.0
  0
LINE
  8
0
 10
429.889065
 20
491.188140
 30
0.0
 11
433.889065
 21
491.188140
 31
0.0
  0
TEXT
  8
1
 62
     7
 10
438.330732
 20
493.188140
 30
0.0
 40
5.0
  7
CSTEXT
  1
2.3
 72
     5
 11
450.780732
 21
493.188140
 31
0.0
  0
LINE
  8
1
 10
433.889063
 20
477.500000
 30
0.0
 11
449.805506
 21
477.500000
 31
0.0
  0
LINE
  8
1
 10
433.889063
 20
357.500000
 30
0.0
 11
449.805506
 21
357.500000
 31
0.0
  0
LINE
  8
1
 10
447.805506
 20
473.500000
 30
0.0
 11
447.805506
 21
361.500000
 31
0.0
  0
LINE
  8
0
 10
446.733709
 20
473.500000
 30
0.0
 11
447.805506
 21
477.500000
 31
0.0
  0
LINE
  8
0
 10
447.805506
 20
477.500000
 30
0.0
 11
448.877303
 21
473.500000
 31
0.0
  0
LINE
  8
0
 10
447.805506
 20
477.500000
 30
0.0
 11
447.805506
 21
473.500000
 31
0.0
  0
LINE
  8
0
 10
448.877303
 20
361.500000
 30
0.0
 11
447.805506
 21
357.500000
 31
0.0
  0
LINE
  8
0
 10
447.805506
 20
357.500000
 30
0.0
 11
446.733709
 21
361.500000
 31
0.0
  0
LINE
  8
0
 10
447.805506
 20
357.500000
 30
0.0
 11
447.805506
 21
361.500000
 31
0.0
  0
TEXT
  8
1
 62
     7
 10
445.805506
 20
411.275000
 30
0.0
 40
5.0
  7
CSTEXT
  1
120
 50
90.0
 72
     5
 11
445.805506
 21
423.725000
 31
0.0
  0
LINE
  8
1
 10
346.589058
 20
355.499998
 30
0.0
 11
346.589058
 21
330.399030
 31
0.0
  0
LINE
  8
1
 10
429.889066
 20
353.499997
 30
0.0
 11
429.889066
 21
330.399030
 31
0.0
  0
LINE
  8
1
 10
350.589058
 20
332.399030
 30
0.0
 11
425.889066
 21
332.399030
 31
0.0
  0
LINE
  8
0
 10
350.589058
 20
331.327233
 30
0.0
 11
346.589058
 21
332.399030
 31
0.0
  0
LINE
  8
0
 10
346.589058
 20
332.399030
 30
0.0
 11
350.589058
 21
333.470827
 31
0.0
  0
LINE
  8
0
 10
346.589058
 20
332.399030
 30
0.0
 11
350.589058
 21
332.399030
 31
0.0
  0
LINE
  8
0
 10
425.889066
 20
333.470827
 30
0.0
 11
429.889066
 21
332.399030
 31
0.0
  0
LINE
  8
0
 10
429.889066
 20
332.399030
 30
0.0
 11
425.889066
 21
331.327233
 31
0.0
  0
LINE
  8
0
 10
429.889066
 20
332.399030
 30
0.0
 11
425.889066
 21
332.399030
 31
0.0
  0
TEXT
  8
1
 62
     7
 10
384.089062
 20
334.399030
 30
0.0
 40
5.0
  7
CSTEXT
  1
84
 72
     5
 11
392.389062
 21
334.399030
 31
0.0
  0
LINE
  8
1
 10
358.289050
 20
358.200002
 30
0.0
 11
358.289050
 21
339.399030
 31
0.0
  0
LINE
  8
1
 10
429.889056
 20
353.499997
 30
0.0
 11
429.889056
 21
339.399030
 31
0.0
  0
LINE
  8
1
 10
362.289050
 20
341.399030
 30
0.0
 11
425.889056
 21
341.399030
 31
0.0
  0
LINE
  8
0
 10
362.289050
 20
340.327233
 30
0.0
 11
358.289050
 21
341.399030
 31
0.0
  0
LINE
  8
0
 10
358.289050
 20
341.399030
 30
0.0
 11
362.289050
 21
342.470827
 31
0.0
  0
LINE
  8
0
 10
358.289050
 20
341.399030
 30
0.0
 11
362.289050
 21
341.399030
 31
0.0
  0
LINE
  8
0
 10
425.889056
 20
342.470827
 30
0.0
 11
429.889056
 21
341.399030
 31
0.0
  0
LINE
  8
0
 10
429.889056
 20
341.399030
 30
0.0
 11
425.889056
 21
340.327233
 31
0.0
  0
LINE
  8
0
 10
429.889056
 20
341.399030
 30
0.0
 11
425.889056
 21
341.399030
 31
0.0
  0
TEXT
  8
1
 62
     7
 10
382.439053
 20
343.399030
 30
0.0
 40
5.0
  7
CSTEXT
  1
二次側71
 72
     5
 11
405.739053
 21
343.399030
 31
0.0
  0
TEXT
  8
1
 62
     7
 10
382.439053
 20
349.649030
 30
0.0
 40
5.0
  7
CSTEXT
  1
一次側78
 72
     5
 11
405.739053
 21
349.649030
 31
0.0
  0
LINE
  8
1
 10
154.999992
 20
155.999997
 30
0.0
 11
154.999992
 21
132.017445
 31
0.0
  0
LINE
  8
1
 10
255.0
 20
155.999997
 30
0.0
 11
255.0
 21
132.017445
 31
0.0
  0
LINE
  8
1
 10
158.999992
 20
134.017445
 30
0.0
 11
251.0
 21
134.017445
 31
0.0
  0
LINE
  8
0
 10
158.999992
 20
132.945648
 30
0.0
 11
154.999992
 21
134.017445
 31
0.0
  0
LINE
  8
0
 10
154.999992
 20
134.017445
 30
0.0
 11
158.999992
 21
135.089242
 31
0.0
  0
LINE
  8
0
 10
154.999992
 20
134.017445
 30
0.0
 11
158.999992
 21
134.017445
 31
0.0
  0
LINE
  8
0
 10
251.0
 20
135.089242
 30
0.0
 11
255.0
 21
134.017445
 31
0.0
  0
LINE
  8
0
 10
255.0
 20
134.017445
 30
0.0
 11
251.0
 21
132.945648
 31
0.0
  0
LINE
  8
0
 10
255.0
 20
134.017445
 30
0.0
 11
251.0
 21
134.017445
 31
0.0
  0
TEXT
  8
1
 62
     7
 10
198.774996
 20
136.017445
 30
0.0
 40
5.0
  7
CSTEXT
  1
100
 72
     5
 11
211.224996
 21
136.017445
 31
0.0
  0
LINE
  8
1
 10
265.500000
 20
267.500000
 30
0.0
 11
300.600616
 21
267.500000
 31
0.0
  0
LINE
  8
1
 10
265.500000
 20
167.500001
 30
0.0
 11
300.600616
 21
167.500001
 31
0.0
  0
LINE
  8
1
 10
298.600616
 20
263.500000
 30
0.0
 11
298.600616
 21
171.500001
 31
0.0
  0
LINE
  8
0
 10
297.528819
 20
263.500000
 30
0.0
 11
298.600616
 21
267.500000
 31
0.0
  0
LINE
  8
0
 10
298.600616
 20
267.500000
 30
0.0
 11
299.672413
 21
263.500000
 31
0.0
  0
LINE
  8
0
 10
298.600616
 20
267.500000
 30
0.0
 11
298.600616
 21
263.500000
 31
0.0
  0
LINE
  8
0
 10
299.672413
 20
171.500001
 30
0.0
 11
298.600616
 21
167.500001
 31
0.0
  0
LINE
  8
0
 10
298.600616
 20
167.500001
 30
0.0
 11
297.528819
 21
171.500001
 31
0.0
  0
LINE
  8
0
 10
298.600616
 20
167.500001
 30
0.0
 11
298.600616
 21
171.500001
 31
0.0
  0
TEXT
  8
1
 62
     7
 10
296.600616
 20
211.275001
 30
0.0
 40
5.0
  7
CSTEXT
  1
100
 50
90.0
 72
     5
 11
296.600616
 21
223.725000
 31
0.0
  0
LINE
  8
1
 10
157.405418
 20
170.042431
 30
0.0
 11
164.036247
 21
183.734280
 31
0.0
  0
LINE
  8
1
 10
157.794835
 20
172.076034
 30
0.0
 11
157.405418
 21
170.042431
 31
0.0
  0
LINE
  8
1
 10
157.405418
 20
170.042431
 30
0.0
 11
158.759467
 21
171.608873
 31
0.0
  0
LINE
  8
1
 10
158.759467
 20
171.608873
 30
0.0
 11
157.794835
 21
172.076034
 31
0.0
  0
TEXT
  8
1
 62
     7
 10
177.499996
 20
126.017445
 30
0.0
 40
5.0
  7
CSTEXT
  1
（取付ねじ穴開寸法図）
 72
     5
 11
232.499996
 21
126.017445
 31
0.0
  0
TEXT
  8
3
 10
119.196098
 20
347.279410
 30
0.0
 40
5.0
  7
CSTEXT
  1
M5ねじ
 41
0.800000
 72
     5
 11
133.836098
 21
347.279410
 31
0.0
  0
TEXT
  8
3
 10
117.836098
 20
354.779410
 30
0.0
 40
5.0
  7
CSTEXT
  1
一次端子
 41
0.800000
 72
     5
 11
133.836098
 21
354.779410
 31
0.0
  0
TEXT
  8
3
 10
226.666861
 20
489.860280
 30
0.0
 40
5.0
  7
CSTEXT
  1
検定封印穴φ２
 41
0.800000
 72
     5
 11
254.666861
 21
489.860280
 31
0.0
  0
TEXT
  8
3
 10
279.872729
 20
483.385570
 30
0.0
 40
5.0
  7
CSTEXT
  1
M5ねじ
 41
0.800000
 72
     5
 11
294.512729
 21
483.385570
 31
0.0
  0
TEXT
  8
3
 10
279.872729
 20
490.885560
 30
0.0
 40
5.0
  7
CSTEXT
  1
二次端子
 41
0.800000
 72
     5
 11
295.872729
 21
490.885560
 31
0.0
  0
TEXT
  8
3
 10
157.056247
 20
186.234280
 30
0.0
 40
5.0
  7
CSTEXT
  1
4-φ7
 41
0.800000
 72
     5
 11
171.016247
 21
186.234280
 31
0.0
  0
TEXT
  8
3
 10
620.0
 20
510.0
 30
0.0
 40
10.0
  7
CSTEXT
  1
外形図
 41
0.800000
 72
     5
 11
644.0
 21
510.0
 31
0.0
  0
TEXT
  8
2
 10
391.914378
 20
-260.6
 30
0.0
 40
4.0
  7
CSTEXT
  1
 
 41
1.166667
 72
     5
 11
395.787711
 21
-260.6
 31
0.0
  0
POLYLINE
  8
4
 66
     1
 70
     0
  0
VERTEX
  8
4
 10
0.0
 20
-604.0
 30
0.0
  0
VERTEX
  8
4
 10
0.0
 20
-10.0
 30
0.0
  0
VERTEX
  8
4
 10
841.0
 20
-10.0
 30
0.0
  0
VERTEX
  8
4
 10
841.0
 20
-604.0
 30
0.0
  0
VERTEX
  8
4
 10
0.0
 20
-604.0
 30
0.0
  0
SEQEND
  8
4
  0
TEXT
  8
4
 10
740.632000
 20
-581.0
 30
0.0
 40
14.0
  7
CSTEXT
  1
A1 S=1/1
 41
0.800000
 72
     5
 11
815.0
 21
-581.0
 31
0.0
  0
TEXT
  8
3
 10
12.500000
 20
-590.8
 30
0.0
 40
3.500000
  7
CSTEXT
  1
A (3314) V-26
 41
0.800000
 72
     5
 11
42.712000
 21
-590.8
 31
0.0
  0
POLYLINE
  8
4
 66
     1
 70
     0
  0
VERTEX
  8
4
 10
8.0
 20
-594.5
 30
0.0
  0
VERTEX
  8
4
 10
8.0
 20
-19.5
 30
0.0
  0
VERTEX
  8
4
 10
833.0
 20
-19.5
 30
0.0
  0
VERTEX
  8
4
 10
833.0
 20
-594.5
 30
0.0
  0
VERTEX
  8
4
 10
8.0
 20
-594.5
 30
0.0
  0
SEQEND
  8
4
  0
POLYLINE
  8
5
 66
     1
 70
     0
  0
VERTEX
  8
5
 10
20.0
 20
-29.0
 30
0.0
  0
VERTEX
  8
5
 10
820.0
 20
-29.0
 30
0.0
  0
VERTEX
  8
5
 10
820.0
 20
-584.0
 30
0.0
  0
VERTEX
  8
5
 10
20.0
 20
-584.0
 30
0.0
  0
VERTEX
  8
5
 10
20.0
 20
-29.0
 30
0.0
  0
SEQEND
  8
5
  0
TEXT
  8
3
 10
620.0
 20
-79.0
 30
0.0
 40
10.0
  7
CSTEXT
  1
VT-15F 220,440/110V
 41
0.800000
 72
     5
 11
746.160000
 21
-79.0
 31
0.0
  0
LINE
  8
8
 10
620.0
 20
-409.0
 30
0.0
 11
790.0
 21
-409.0
 31
0.0
  0
LINE
  8
8
 10
790.0
 20
-409.0
 30
0.0
 11
790.0
 21
-559.0
 31
0.0
  0
LINE
  8
8
 10
620.0
 20
-559.0
 30
0.0
 11
620.0
 21
-409.0
 31
0.0
  0
LINE
  8
8
 10
620.0
 20
-424.0
 30
0.0
 11
790.0
 21
-424.0
 31
0.0
  0
TEXT
  8
3
 10
625.0
 20
-415.3
 30
0.0
 40
5.0
  7
CSTEXT
  1
形名
 41
0.800000
 72
     5
 11
633.0
 21
-415.3
 31
0.0
  0
TEXT
  8
3
 10
625.0
 20
-422.8
 30
0.0
 40
5.0
  7
CSTEXT
  1
Type
 41
0.800000
 72
     5
 11
638.280000
 21
-422.8
 31
0.0
  0
LINE
  8
8
 10
620.0
 20
-439.0
 30
0.0
 11
790.0
 21
-439.0
 31
0.0
  0
TEXT
  8
3
 10
625.0
 20
-430.3
 30
0.0
 40
5.0
  7
CSTEXT
  1
変圧比(V)
 41
0.800000
 72
     5
 11
646.960000
 21
-430.3
 31
0.0
  0
TEXT
  8
3
 10
625.0
 20
-437.8
 30
0.0
 40
5.0
  7
CSTEXT
  1
Transformation ratio
 41
0.800000
 72
     5
 11
691.400000
 21
-437.8
 31
0.0
  0
LINE
  8
8
 10
620.0
 20
-454.0
 30
0.0
 11
790.0
 21
-454.0
 31
0.0
  0
TEXT
  8
3
 10
625.0
 20
-445.3
 30
0.0
 40
5.0
  7
CSTEXT
  1
定格負担(VA)
 41
0.800000
 72
     5
 11
654.280000
 21
-445.3
 31
0.0
  0
TEXT
  8
3
 10
625.0
 20
-452.8
 30
0.0
 40
5.0
  7
CSTEXT
  1
Rated burden
 41
0.800000
 72
     5
 11
664.840000
 21
-452.8
 31
0.0
  0
LINE
  8
8
 10
620.0
 20
-469.0
 30
0.0
 11
790.0
 21
-469.0
 31
0.0
  0
TEXT
  8
3
 10
625.0
 20
-460.3
 30
0.0
 40
5.0
  7
CSTEXT
  1
確度階級
 41
0.800000
 72
     5
 11
641.0
 21
-460.3
 31
0.0
  0
TEXT
  8
3
 10
625.0
 20
-467.8
 30
0.0
 40
5.0
  7
CSTEXT
  1
Accuracy class
 41
0.800000
 72
     5
 11
671.480000
 21
-467.8
 31
0.0
  0
LINE
  8
8
 10
620.0
 20
-484.0
 30
0.0
 11
790.0
 21
-484.0
 31
0.0
  0
TEXT
  8
3
 10
625.0
 20
-475.3
 30
0.0
 40
5.0
  7
CSTEXT
  1
周波数(Hz)
 41
0.800000
 72
     5
 11
650.280000
 21
-475.3
 31
0.0
  0
TEXT
  8
3
 10
625.0
 20
-482.8
 30
0.0
 40
5.0
  7
CSTEXT
  1
Frequency
 41
0.800000
 72
     5
 11
654.880000
 21
-482.8
 31
0.0
  0
LINE
  8
8
 10
620.0
 20
-499.0
 30
0.0
 11
790.0
 21
-499.0
 31
0.0
  0
TEXT
  8
3
 10
625.0
 20
-490.3
 30
0.0
 40
5.0
  7
CSTEXT
  1
耐電圧(kV)
 41
0.800000
 72
     5
 11
650.280000
 21
-490.3
 31
0.0
  0
TEXT
  8
3
 10
625.0
 20
-497.8
 30
0.0
 40
5.0
  7
CSTEXT
  1
Withstand voltage
 41
0.800000
 72
     5
 11
681.440000
 21
-497.8
 31
0.0
  0
LINE
  8
8
 10
620.0
 20
-529.0
 30
0.0
 11
790.0
 21
-529.0
 31
0.0
  0
LINE
  8
8
 10
620.0
 20
-544.0
 30
0.0
 11
790.0
 21
-544.0
 31
0.0
  0
TEXT
  8
3
 10
625.0
 20
-520.3
 30
0.0
 40
5.0
  7
CSTEXT
  1
適用規格
 41
0.800000
 72
     5
 11
641.0
 21
-520.3
 31
0.0
  0
TEXT
  8
3
 10
625.0
 20
-527.8
 30
0.0
 40
5.0
  7
CSTEXT
  1
Standard
 41
0.800000
 72
     5
 11
651.560000
 21
-527.8
 31
0.0
  0
LINE
  8
8
 10
620.0
 20
-559.0
 30
0.0
 11
790.0
 21
-559.0
 31
0.0
  0
TEXT
  8
3
 10
625.0
 20
-550.3
 30
0.0
 40
5.0
  7
CSTEXT
  1
その他
 41
0.800000
 72
     5
 11
637.0
 21
-550.3
 31
0.0
  0
TEXT
  8
3
 10
625.0
 20
-557.8
 30
0.0
 40
5.0
  7
CSTEXT
  1
Miscellaneous
 41
0.800000
 72
     5
 11
668.160000
 21
-557.8
 31
0.0
  0
LINE
  8
8
 10
740.0
 20
-409.0
 30
0.0
 11
740.0
 21
-559.0
 31
0.0
  0
TEXT
  8
3
 10
755.040000
 20
-419.0
 30
0.0
 40
5.0
  7
CSTEXT
  1
VT-15F
 41
0.800000
 72
     5
 11
774.960000
 21
-419.0
 31
0.0
  0
TEXT
  8
3
 10
758.360000
 20
-434.0
 30
0.0
 40
5.0
  7
CSTEXT
  1
/110
 41
0.800000
 72
     5
 11
771.640000
 21
-434.0
 31
0.0
  0
TEXT
  8
3
 10
761.680000
 20
-449.0
 30
0.0
 40
5.0
  7
CSTEXT
  1
15
 41
0.800000
 72
     5
 11
768.320000
 21
-449.0
 31
0.0
  0
TEXT
  8
3
 10
754.700000
 20
-464.0
 30
0.0
 40
5.0
  7
CSTEXT
  1
1.0・1P
 41
0.800000
 72
     5
 11
775.300000
 21
-464.0
 31
0.0
  0
TEXT
  8
3
 10
752.360000
 20
-479.0
 30
0.0
 40
5.0
  7
CSTEXT
  1
50または60
 41
0.800000
 72
     5
 11
777.640000
 21
-479.0
 31
0.0
  0
TEXT
  8
3
 10
755.0
 20
-494.0
 30
0.0
 40
5.0
  7
CSTEXT
  1
左表による
 41
0.800000
 72
     5
 11
775.0
 21
-494.0
 31
0.0
  0
TEXT
  8
3
 10
745.080000
 20
-520.3
 30
0.0
 40
5.0
  7
CSTEXT
  1
JIS C 1731-2
 41
0.800000
 72
     5
 11
784.920000
 21
-520.3
 31
0.0
  0
TEXT
  8
3
 10
625.0
 20
-406.5
 30
0.0
 40
5.0
  7
CSTEXT
  1
Item to be specified in specifications.
 41
0.800000
 72
     5
 11
754.480000
 21
-406.5
 31
0.0
  0
TEXT
  8
3
 10
625.0
 20
-399.0
 30
0.0
 40
5.0
  7
CSTEXT
  1
仕様ご指定事項
 41
0.800000
 72
     5
 11
653.0
 21
-399.0
 31
0.0
  0
LINE
  8
8
 10
620.0
 20
-514.0
 30
0.0
 11
790.0
 21
-514.0
 31
0.0
  0
TEXT
  8
3
 10
625.0
 20
-505.3
 30
0.0
 40
5.0
  7
CSTEXT
  1
制限負荷
 41
0.800000
 72
     5
 11
641.0
 21
-505.3
 31
0.0
  0
TEXT
  8
3
 10
625.0
 20
-512.8
 30
0.0
 40
5.0
  7
CSTEXT
  1
Limit output
 41
0.800000
 72
     5
 11
664.840000
 21
-512.8
 31
0.0
  0
TEXT
  8
3
 10
760.020000
 20
-509.0
 30
0.0
 40
5.0
  7
CSTEXT
  1
100
 41
0.800000
 72
     5
 11
769.980000
 21
-509.0
 31
0.0
  0
TEXT
  8
3
 10
751.720000
 20
-527.8
 30
0.0
 40
5.0
  7
CSTEXT
  1
JEC-1201
 41
0.800000
 72
     5
 11
778.280000
 21
-527.8
 31
0.0
  0
TEXT
  8
3
 10
625.0
 20
-535.3
 30
0.0
 40
5.0
  7
CSTEXT
  1
質量(kg)
 41
0.800000
 72
     5
 11
646.280000
 21
-535.3
 31
0.0
  0
TEXT
  8
3
 10
625.0
 20
-542.8
 30
0.0
 40
5.0
  7
CSTEXT
  1
Mass
 41
0.800000
 72
     5
 11
638.280000
 21
-542.8
 31
0.0
  0
TEXT
  8
3
 10
760.020000
 20
-539.0
 30
0.0
 40
5.0
  7
CSTEXT
  1
3.5
 41
0.800000
 72
     5
 11
769.980000
 21
-539.0
 31
0.0
  0
LINE
  8
8
 10
520.0
 20
-529.0
 30
0.0
 11
600.0
 21
-529.0
 31
0.0
  0
LINE
  8
8
 10
600.0
 20
-529.0
 30
0.0
 11
600.0
 21
-559.0
 31
0.0
  0
LINE
  8
8
 10
600.0
 20
-559.0
 30
0.0
 11
520.0
 21
-559.0
 31
0.0
  0
LINE
  8
8
 10
520.0
 20
-559.0
 30
0.0
 11
520.0
 21
-529.0
 31
0.0
  0
LINE
  8
8
 10
520.0
 20
-539.0
 30
0.0
 11
600.0
 21
-539.0
 31
0.0
  0
LINE
  8
8
 10
520.0
 20
-549.0
 30
0.0
 11
600.0
 21
-549.0
 31
0.0
  0
LINE
  8
8
 10
560.0
 20
-529.0
 30
0.0
 11
560.0
 21
-559.0
 31
0.0
  0
TEXT
  8
3
 10
535.020000
 20
-546.5
 30
0.0
 40
5.0
  7
CSTEXT
  1
220
 41
0.800000
 72
     5
 11
544.980000
 21
-546.5
 31
0.0
  0
TEXT
  8
3
 10
535.020000
 20
-556.5
 30
0.0
 40
5.0
  7
CSTEXT
  1
440
 41
0.800000
 72
     5
 11
544.980000
 21
-556.5
 31
0.0
  0
TEXT
  8
3
 10
527.020000
 20
-536.5
 30
0.0
 40
5.0
  7
CSTEXT
  1
一次電圧(V)
 41
0.800000
 72
     5
 11
552.980000
 21
-536.5
 31
0.0
  0
TEXT
  8
3
 10
575.020000
 20
-546.5
 30
0.0
 40
5.0
  7
CSTEXT
  1
2/-
 41
0.800000
 72
     5
 11
584.980000
 21
-546.5
 31
0.0
  0
TEXT
  8
3
 10
575.020000
 20
-556.5
 30
0.0
 40
5.0
  7
CSTEXT
  1
3/-
 41
0.800000
 72
     5
 11
584.980000
 21
-556.5
 31
0.0
  0
TEXT
  8
3
 10
567.360000
 20
-536.5
 30
0.0
 40
5.0
  7
CSTEXT
  1
耐電圧(kV)
 41
0.800000
 72
     5
 11
592.640000
 21
-536.5
 31
0.0
  0
LINE
  8
6
 10
269.982577
 20
-186.5
 30
0.0
 11
138.277636
 21
-186.5
 31
0.0
  0
LINE
  8
6
 10
163.893853
 20
-222.5
 30
0.0
 11
150.477839
 21
-222.5
 31
0.0
  0
LINE
  8
6
 10
157.0
 20
-230.2
 30
0.0
 11
157.0
 21
-216.2
 31
0.0
  0
LINE
  8
6
 10
163.893853
 20
-150.5
 30
0.0
 11
150.477839
 21
-150.5
 31
0.0
  0
LINE
  8
6
 10
157.0
 20
-156.4
 30
0.0
 11
157.0
 21
-143.3
 31
0.0
  0
LINE
  8
6
 10
205.0
 20
-257.9
 30
0.0
 11
205.0
 21
-116.0
 31
0.0
  0
LINE
  8
6
 10
262.433514
 20
-236.0
 30
0.0
 11
238.083333
 21
-236.0
 31
0.0
  0
LINE
  8
6
 10
247.0
 20
-231.9
 30
0.0
 11
247.0
 21
-239.6
 31
0.0
  0
LINE
  8
6
 10
255.0
 20
-228.1
 30
0.0
 11
255.0
 21
-243.6
 31
0.0
  0
LINE
  8
6
 10
261.416667
 20
-206.5
 30
0.0
 11
242.583333
 21
-206.5
 31
0.0
  0
LINE
  8
6
 10
262.433514
 20
-137.0
 30
0.0
 11
238.083333
 21
-137.0
 31
0.0
  0
LINE
  8
6
 10
261.416667
 20
-166.5
 30
0.0
 11
242.583333
 21
-166.5
 31
0.0
  0
LINE
  8
6
 10
255.0
 20
-130.2
 30
0.0
 11
255.0
 21
-144.1
 31
0.0
  0
LINE
  8
6
 10
247.0
 20
-133.7
 30
0.0
 11
247.0
 21
-140.7
 31
0.0
  0
LINE
  8
6
 10
432.214666
 20
-186.5
 30
0.0
 11
340.070176
 21
-186.5
 31
0.0
  0
LINE
  8
6
 10
369.750416
 20
-236.0
 30
0.0
 11
349.415506
 21
-236.0
 31
0.0
  0
LINE
  8
6
 10
369.750416
 20
-137.0
 30
0.0
 11
349.415506
 21
-137.0
 31
0.0
  0
LINE
  8
7
 10
427.589056
 20
-126.5
 30
0.0
 11
429.889056
 21
-126.5
 31
0.0
  0
LINE
  8
7
 10
427.589056
 20
-133.5
 30
0.0
 11
426.789056
 21
-133.5
 31
0.0
  0
LINE
  8
7
 10
427.589056
 20
-150.5
 30
0.0
 11
427.289056
 21
-150.5
 31
0.0
  0
ARC
  8
7
 10
427.289056
 20
-150.0
 30
0.0
 40
0.500000
 50
180.0
 51
270.0
  0
LINE
  8
7
 10
429.889056
 20
-147.5
 30
0.0
 11
426.789056
 21
-147.5
 31
0.0
  0
LINE
  8
7
 10
426.789056
 20
-127.5
 30
0.0
 11
426.789056
 21
-150.0
 31
0.0
  0
LINE
  8
7
 10
429.889056
 20
-126.5
 30
0.0
 11
429.889056
 21
-147.5
 31
0.0
  0
LINE
  8
7
 10
427.589056
 20
-126.5
 30
0.0
 11
427.589056
 21
-147.5
 31
0.0
  0
POINT
  8
7
 10
429.889065
 20
-126.5
 30
0.0
  0
POINT
  8
7
 10
427.589062
 20
-126.5
 30
0.0
  0
LINE
  8
7
 10
427.589056
 20
-222.5
 30
0.0
 11
427.289056
 21
-222.5
 31
0.0
  0
ARC
  8
7
 10
427.289056
 20
-223.0
 30
0.0
 40
0.500000
 50
90.0
 51
180.0
  0
LINE
  8
7
 10
429.889056
 20
-225.5
 30
0.0
 11
426.789056
 21
-225.5
 31
0.0
  0
LINE
  8
7
 10
427.589056
 20
-239.5
 30
0.0
 11
426.789056
 21
-239.5
 31
0.0
  0
LINE
  8
7
 10
427.589056
 20
-246.5
 30
0.0
 11
429.889056
 21
-246.5
 31
0.0
  0
LINE
  8
7
 10
426.789056
 20
-245.5
 30
0.0
 11
426.789056
 21
-223.0
 31
0.0
  0
LINE
  8
7
 10
429.889056
 20
-246.5
 30
0.0
 11
429.889056
 21
-225.5
 31
0.0
  0
LINE
  8
7
 10
427.589056
 20
-246.5
 30
0.0
 11
427.589056
 21
-225.5
 31
0.0
  0
LINE
  8
7
 10
427.589056
 20
-222.5
 30
0.0
 11
427.589056
 21
-150.5
 31
0.0
  0
LINE
  8
7
 10
380.589056
 20
-127.5
 30
0.0
 11
380.589056
 21
-122.5
 31
0.0
  0
LINE
  8
7
 10
366.089056
 20
-127.5
 30
0.0
 11
366.089056
 21
-125.0
 31
0.0
  0
LINE
  8
7
 10
361.089056
 20
-127.5
 30
0.0
 11
361.089056
 21
-125.0
 31
0.0
  0
LINE
  8
7
 10
359.589056
 20
-130.5
 30
0.0
 11
359.589056
 21
-131.0
 31
0.0
  0
LINE
  8
7
 10
361.089056
 20
-125.0
 30
0.0
 11
366.089056
 21
-125.0
 31
0.0
  0
LINE
  8
7
 10
365.589056
 20
-134.9
 30
0.0
 11
363.589056
 21
-134.9
 31
0.0
  0
LINE
  8
7
 10
365.589056
 20
-139.1
 30
0.0
 11
363.589056
 21
-139.1
 31
0.0
  0
LINE
  8
7
 10
365.589056
 20
-139.5
 30
0.0
 11
363.589056
 21
-139.5
 31
0.0
  0
LINE
  8
7
 10
365.589056
 20
-134.5
 30
0.0
 11
363.589056
 21
-134.5
 31
0.0
  0
LINE
  8
7
 10
365.589056
 20
-134.5
 30
0.0
 11
365.589056
 21
-139.5
 31
0.0
  0
LINE
  8
7
 10
359.589056
 20
-143.0
 30
0.0
 11
360.589056
 21
-143.0
 31
0.0
  0
LINE
  8
7
 10
359.589056
 20
-143.0
 30
0.0
 11
359.589056
 21
-147.0
 31
0.0
  0
ARC
  8
7
 10
359.589056
 20
-151.5
 30
0.0
 40
1.0
 50
0.0
 51
90.0
  0
ARC
  8
7
 10
358.589056
 20
-147.0
 30
0.0
 40
1.0
 50
270.0
 51
360.0
  0
LINE
  8
7
 10
360.589056
 20
-142.8
 30
0.0
 11
358.289056
 21
-142.8
 31
0.0
  0
LINE
  8
7
 10
358.289056
 20
-131.2
 30
0.0
 11
358.289056
 21
-142.8
 31
0.0
  0
LINE
  8
7
 10
359.589056
 20
-131.0
 30
0.0
 11
360.589056
 21
-131.0
 31
0.0
  0
LINE
  8
7
 10
360.589056
 20
-131.0
 30
0.0
 11
360.589056
 21
-143.0
 31
0.0
  0
LINE
  8
7
 10
360.589056
 20
-131.2
 30
0.0
 11
358.289056
 21
-131.2
 31
0.0
  0
ARC
  8
7
 10
364.589056
 20
-153.5
 30
0.0
 40
1.0
 50
180.0
 51
270.0
  0
ARC
  8
7
 10
359.589056
 20
-156.0
 30
0.0
 40
1.0
 50
270.0
 51
360.0
  0
LINE
  8
7
 10
360.589056
 20
-162.3
 30
0.0
 11
355.389056
 21
-162.3
 31
0.0
  0
LINE
  8
7
 10
360.589056
 20
-170.8
 30
0.0
 11
355.389056
 21
-170.8
 31
0.0
  0
LINE
  8
7
 10
360.589056
 20
-170.8
 30
0.0
 11
360.589056
 21
-162.3
 31
0.0
  0
LINE
  8
7
 10
355.389056
 20
-170.8
 30
0.0
 11
355.389056
 21
-162.3
 31
0.0
  0
LINE
  8
7
 10
360.589056
 20
-183.8
 30
0.0
 11
360.589056
 21
-176.5
 31
0.0
  0
ARC
  8
7
 10
359.089056
 20
-176.5
 30
0.0
 40
1.500000
 50
0.0
 51
90.0
  0
ARC
  8
7
 10
359.089056
 20
-189.3
 30
0.0
 40
1.500000
 50
0.0
 51
90.0
  0
ARC
  8
7
 10
359.089056
 20
-183.7
 30
0.0
 40
1.500000
 50
270.0
 51
360.0
  0
LINE
  8
7
 10
363.589056
 20
-153.5
 30
0.0
 11
363.589056
 21
-127.5
 31
0.0
  0
LINE
  8
7
 10
360.589056
 20
-151.5
 30
0.0
 11
360.589056
 21
-156.0
 31
0.0
  0
LINE
  8
7
 10
383.589056
 20
-122.5
 30
0.0
 11
380.589056
 21
-122.5
 31
0.0
  0
LINE
  8
7
 10
383.589056
 20
-127.5
 30
0.0
 11
383.589056
 21
-122.5
 31
0.0
  0
ARC
  8
7
 10
347.389056
 20
-129.7
 30
0.0
 40
0.800000
 50
180.0
 51
270.0
  0
ARC
  8
7
 10
347.589056
 20
-128.5
 30
0.0
 40
1.0
 50
90.0
 51
180.0
  0
ARC
  8
7
 10
347.389056
 20
-149.7
 30
0.0
 40
0.800000
 50
180.0
 51
270.0
  0
ARC
  8
7
 10
347.389056
 20
-148.8
 30
0.0
 40
0.800000
 50
90.0
 51
180.0
  0
ARC
  8
7
 10
351.089056
 20
-157.5
 30
0.0
 40
0.500000
 50
90.0
 51
180.0
  0
ARC
  8
7
 10
350.289048
 20
-160.0
 30
0.0
 40
0.500004
 50
53.129310
 51
110.236862
  0
ARC
  8
7
 10
350.289047
 20
-160.0
 30
0.0
 40
1.300001
 50
76.657222
 51
110.237239
  0
ARC
  8
7
 10
343.233163
 20
-160.2
 30
0.0
 40
1.800006
 50
225.717556
 51
290.237458
  0
ARC
  8
7
 10
343.233155
 20
-160.2
 30
0.0
 40
1.0
 50
225.718127
 51
290.238029
  0
LINE
  8
7
 10
346.589056
 20
-172.1
 30
0.0
 11
346.589056
 21
-169.6
 31
0.0
  0
ARC
  8
7
 10
343.233163
 20
-172.8
 30
0.0
 40
1.000002
 50
69.762496
 51
134.282398
  0
ARC
  8
7
 10
343.233155
 20
-172.8
 30
0.0
 40
1.800004
 50
69.762250
 51
134.282152
  0
LINE
  8
7
 10
346.589056
 20
-163.4
 30
0.0
 11
346.589056
 21
-160.9
 31
0.0
  0
LINE
  8
7
 10
343.855806
 20
-171.1
 30
0.0
 11
350.116096
 21
-173.4
 31
0.0
  0
POINT
  8
7
 10
350.789056
 20
-166.5
 30
0.0
  0
LINE
  8
7
 10
348.489055
 20
-170.5
 30
0.0
 11
346.189056
 21
-166.5
 31
0.0
  0
LINE
  8
7
 10
346.189056
 20
-166.5
 30
0.0
 11
348.489055
 21
-162.5
 31
0.0
  0
LINE
  8
7
 10
348.489057
 20
-162.5
 30
0.0
 11
353.089055
 21
-162.5
 31
0.0
  0
LINE
  8
7
 10
353.089057
 20
-162.5
 30
0.0
 11
355.389056
 21
-166.5
 31
0.0
  0
LINE
  8
7
 10
355.389056
 20
-166.5
 30
0.0
 11
353.089057
 21
-170.5
 31
0.0
  0
LINE
  8
7
 10
353.089055
 20
-170.5
 30
0.0
 11
348.489057
 21
-170.5
 31
0.0
  0
CIRCLE
  8
7
 10
350.789056
 20
-166.5
 30
0.0
 40
4.0
  0
CIRCLE
  8
7
 10
350.789056
 20
-166.5
 30
0.0
 40
5.0
  0
LINE
  8
7
 10
343.855806
 20
-161.9
 30
0.0
 11
350.116096
 21
-159.6
 31
0.0
  0
LINE
  8
7
 10
343.579076
 20
-161.1
 30
0.0
 11
349.839366
 21
-158.8
 31
0.0
  0
ARC
  8
7
 10
351.089056
 20
-174.5
 30
0.0
 40
0.500000
 50
180.0
 51
270.0
  0
ARC
  8
7
 10
350.289063
 20
-172.9
 30
0.0
 40
1.300002
 50
249.761999
 51
283.342016
  0
ARC
  8
7
 10
347.389056
 20
-186.9
 30
0.0
 40
0.800000
 50
180.0
 51
270.0
  0
ARC
  8
7
 10
347.389056
 20
-186.1
 30
0.0
 40
0.800000
 50
90.0
 51
180.0
  0
LINE
  8
7
 10
350.589056
 20
-174.5
 30
0.0
 11
350.589056
 21
-157.5
 31
0.0
  0
LINE
  8
7
 10
343.579076
 20
-171.9
 30
0.0
 11
349.839366
 21
-174.2
 31
0.0
  0
ARC
  8
7
 10
350.289057
 20
-172.9
 30
0.0
 40
0.500002
 50
249.761952
 51
306.869504
  0
LINE
  8
7
 10
338.589056
 20
-158.8
 30
0.0
 11
338.589056
 21
-161.0
 31
0.0
  0
LINE
  8
7
 10
335.589056
 20
-158.8
 30
0.0
 11
335.589056
 21
-161.0
 31
0.0
  0
ARC
  8
7
 10
337.089056
 20
-161.0
 30
0.0
 40
1.500000
 50
180.0
 51
360.0
  0
ARC
  8
7
 10
337.089056
 20
-172.0
 30
0.0
 40
1.500000
 50
0.0
 51
180.0
  0
ARC
  8
7
 10
332.624589
 20
-159.5
 30
0.0
 40
0.499996
 50
244.999348
 51
302.539319
  0
ARC
  8
7
 10
332.624580
 20
-159.5
 30
0.0
 40
1.300002
 50
245.000048
 51
302.540020
  0
LINE
  8
7
 10
329.427146
 20
-158.6
 30
0.0
 11
329.089056
 21
-159.3
 31
0.0
  0
LINE
  8
7
 10
332.413276
 20
-160.0
 30
0.0
 11
329.427146
 21
-158.6
 31
0.0
  0
LINE
  8
7
 10
332.075176
 20
-160.7
 30
0.0
 11
329.089056
 21
-159.3
 31
0.0
  0
ARC
  8
7
 10
332.624589
 20
-173.5
 30
0.0
 40
0.499996
 50
57.460681
 51
115.000652
  0
ARC
  8
7
 10
332.624580
 20
-173.5
 30
0.0
 40
1.300002
 50
57.459980
 51
114.999952
  0
ARC
  8
7
 10
337.089047
 20
-166.5
 30
0.0
 40
7.000011
 50
237.460124
 51
257.626471
  0
ARC
  8
7
 10
337.089055
 20
-166.5
 30
0.0
 40
6.999998
 50
102.373625
 51
257.626375
  0
ARC
  8
7
 10
337.089047
 20
-166.5
 30
0.0
 40
7.000011
 50
102.373529
 51
122.539876
  0
LINE
  8
7
 10
329.427146
 20
-174.4
 30
0.0
 11
329.089056
 21
-173.7
 31
0.0
  0
LINE
  8
7
 10
332.413276
 20
-173.0
 30
0.0
 11
329.427146
 21
-174.4
 31
0.0
  0
LINE
  8
7
 10
332.075176
 20
-172.3
 30
0.0
 11
329.089056
 21
-173.7
 31
0.0
  0
LINE
  8
7
 10
335.589056
 20
-174.2
 30
0.0
 11
335.589056
 21
-172.0
 31
0.0
  0
LINE
  8
7
 10
338.589056
 20
-174.2
 30
0.0
 11
338.589056
 21
-172.0
 31
0.0
  0
ARC
  8
7
 10
337.089057
 20
-166.5
 30
0.0
 40
6.999998
 50
282.373625
 51
437.626375
  0
ARC
  8
7
 10
337.089058
 20
-166.5
 30
0.0
 40
7.800004
 50
237.459983
 51
314.282204
  0
ARC
  8
7
 10
337.089060
 20
-166.5
 30
0.0
 40
6.999990
 50
282.373611
 51
314.282233
  0
ARC
  8
7
 10
337.089052
 20
-166.5
 30
0.0
 40
7.800004
 50
45.717737
 51
122.539958
  0
LINE
  8
7
 10
346.589056
 20
-160.0
 30
0.0
 11
346.589056
 21
-128.5
 31
0.0
  0
LINE
  8
7
 10
347.389056
 20
-187.8
 30
0.0
 11
359.089056
 21
-187.8
 31
0.0
  0
LINE
  8
7
 10
347.389056
 20
-185.3
 30
0.0
 11
359.089056
 21
-185.3
 31
0.0
  0
LINE
  8
7
 10
359.089056
 20
-175.0
 30
0.0
 11
351.089056
 21
-175.0
 31
0.0
  0
LINE
  8
7
 10
359.589056
 20
-130.5
 30
0.0
 11
347.389056
 21
-130.5
 31
0.0
  0
LINE
  8
7
 10
347.389056
 20
-150.5
 30
0.0
 11
359.589056
 21
-150.5
 31
0.0
  0
LINE
  8
7
 10
358.589056
 20
-148.0
 30
0.0
 11
347.389056
 21
-148.0
 31
0.0
  0
LINE
  8
7
 10
359.589056
 20
-157.0
 30
0.0
 11
351.089056
 21
-157.0
 31
0.0
  0
LINE
  8
7
 10
356.591999
 20
-138.7
 30
0.0
 11
359.986113
 21
-135.3
 31
0.0
  0
LINE
  8
7
 10
356.592002
 20
-135.3
 30
0.0
 11
359.986110
 21
-138.7
 31
0.0
  0
POINT
  8
7
 10
358.289056
 20
-137.0
 30
0.0
  0
CIRCLE
  8
7
 10
358.289056
 20
-137.0
 30
0.0
 40
5.0
  0
CIRCLE
  8
7
 10
358.289056
 20
-137.0
 30
0.0
 40
4.500000
  0
POINT
  8
7
 10
341.397798
 20
-127.5
 30
0.0
  0
POINT
  8
7
 10
374.397794
 20
-122.5
 30
0.0
  0
ARC
  8
7
 10
359.089056
 20
-196.5
 30
0.0
 40
1.500000
 50
270.0
 51
360.0
  0
LINE
  8
7
 10
360.589056
 20
-202.3
 30
0.0
 11
355.389056
 21
-202.3
 31
0.0
  0
LINE
  8
7
 10
360.589056
 20
-210.8
 30
0.0
 11
355.389056
 21
-210.8
 31
0.0
  0
LINE
  8
7
 10
360.589056
 20
-202.3
 30
0.0
 11
360.589056
 21
-210.8
 31
0.0
  0
LINE
  8
7
 10
355.389056
 20
-202.3
 30
0.0
 11
355.389056
 21
-210.8
 31
0.0
  0
ARC
  8
7
 10
364.589056
 20
-219.5
 30
0.0
 40
1.0
 50
90.0
 51
180.0
  0
LINE
  8
7
 10
365.589056
 20
-233.5
 30
0.0
 11
363.589056
 21
-233.5
 31
0.0
  0
LINE
  8
7
 10
365.589056
 20
-233.9
 30
0.0
 11
363.589056
 21
-233.9
 31
0.0
  0
LINE
  8
7
 10
360.589056
 20
-221.5
 30
0.0
 11
360.589056
 21
-217.0
 31
0.0
  0
ARC
  8
7
 10
359.589056
 20
-221.5
 30
0.0
 40
1.0
 50
270.0
 51
360.0
  0
ARC
  8
7
 10
358.589056
 20
-226.0
 30
0.0
 40
1.0
 50
0.0
 51
90.0
  0
LINE
  8
7
 10
359.589056
 20
-230.0
 30
0.0
 11
360.589056
 21
-230.0
 31
0.0
  0
LINE
  8
7
 10
360.589056
 20
-230.2
 30
0.0
 11
358.289056
 21
-230.2
 31
0.0
  0
LINE
  8
7
 10
359.589056
 20
-230.0
 30
0.0
 11
359.589056
 21
-226.0
 31
0.0
  0
ARC
  8
7
 10
359.589056
 20
-217.0
 30
0.0
 40
1.0
 50
0.0
 51
90.0
  0
LINE
  8
7
 10
366.089056
 20
-245.5
 30
0.0
 11
366.089056
 21
-248.0
 31
0.0
  0
LINE
  8
7
 10
365.589056
 20
-238.5
 30
0.0
 11
363.589056
 21
-238.5
 31
0.0
  0
LINE
  8
7
 10
365.589056
 20
-238.1
 30
0.0
 11
363.589056
 21
-238.1
 31
0.0
  0
LINE
  8
7
 10
361.089056
 20
-245.5
 30
0.0
 11
361.089056
 21
-248.0
 31
0.0
  0
LINE
  8
7
 10
359.589056
 20
-242.0
 30
0.0
 11
360.589056
 21
-242.0
 31
0.0
  0
LINE
  8
7
 10
359.589056
 20
-242.5
 30
0.0
 11
359.589056
 21
-242.0
 31
0.0
  0
LINE
  8
7
 10
360.589056
 20
-241.8
 30
0.0
 11
358.289056
 21
-241.8
 31
0.0
  0
LINE
  8
7
 10
361.089056
 20
-248.0
 30
0.0
 11
366.089056
 21
-248.0
 31
0.0
  0
LINE
  8
7
 10
363.589056
 20
-245.5
 30
0.0
 11
363.589056
 21
-219.5
 31
0.0
  0
LINE
  8
7
 10
360.589056
 20
-242.0
 30
0.0
 11
360.589056
 21
-230.0
 31
0.0
  0
LINE
  8
7
 10
365.589056
 20
-238.5
 30
0.0
 11
365.589056
 21
-233.5
 31
0.0
  0
LINE
  8
7
 10
358.289056
 20
-241.8
 30
0.0
 11
358.289056
 21
-230.2
 31
0.0
  0
ARC
  8
7
 10
351.089056
 20
-198.5
 30
0.0
 40
0.500000
 50
90.0
 51
180.0
  0
ARC
  8
7
 10
350.289047
 20
-200.0
 30
0.0
 40
1.300001
 50
76.657222
 51
110.237239
  0
ARC
  8
7
 10
350.289048
 20
-200.0
 30
0.0
 40
0.500004
 50
53.129310
 51
110.236862
  0
ARC
  8
7
 10
350.289063
 20
-212.9
 30
0.0
 40
1.300002
 50
249.761999
 51
283.342016
  0
ARC
  8
7
 10
350.289057
 20
-212.9
 30
0.0
 40
0.500002
 50
249.761952
 51
306.869504
  0
LINE
  8
7
 10
350.589056
 20
-198.5
 30
0.0
 11
350.589056
 21
-215.5
 31
0.0
  0
LINE
  8
7
 10
346.589056
 20
-203.4
 30
0.0
 11
346.589056
 21
-200.9
 31
0.0
  0
ARC
  8
7
 10
343.233155
 20
-200.2
 30
0.0
 40
1.0
 50
225.718127
 51
290.238029
  0
ARC
  8
7
 10
343.233163
 20
-200.2
 30
0.0
 40
1.800006
 50
225.717556
 51
290.237458
  0
LINE
  8
7
 10
346.589056
 20
-212.1
 30
0.0
 11
346.589056
 21
-209.6
 31
0.0
  0
ARC
  8
7
 10
343.233155
 20
-212.8
 30
0.0
 40
1.800004
 50
69.762250
 51
134.282152
  0
ARC
  8
7
 10
343.233163
 20
-212.8
 30
0.0
 40
1.000002
 50
69.762496
 51
134.282398
  0
POINT
  8
7
 10
350.789056
 20
-206.5
 30
0.0
  0
LINE
  8
7
 10
348.489055
 20
-202.5
 30
0.0
 11
346.189056
 21
-206.5
 31
0.0
  0
LINE
  8
7
 10
346.189056
 20
-206.5
 30
0.0
 11
348.489055
 21
-210.5
 31
0.0
  0
LINE
  8
7
 10
348.489057
 20
-210.5
 30
0.0
 11
353.089055
 21
-210.5
 31
0.0
  0
LINE
  8
7
 10
353.089057
 20
-210.5
 30
0.0
 11
355.389056
 21
-206.5
 31
0.0
  0
LINE
  8
7
 10
355.389056
 20
-206.5
 30
0.0
 11
353.089057
 21
-202.5
 31
0.0
  0
LINE
  8
7
 10
353.089055
 20
-202.5
 30
0.0
 11
348.489057
 21
-202.5
 31
0.0
  0
LINE
  8
7
 10
343.579076
 20
-201.1
 30
0.0
 11
349.839366
 21
-198.8
 31
0.0
  0
LINE
  8
7
 10
343.855806
 20
-201.9
 30
0.0
 11
350.116096
 21
-199.6
 31
0.0
  0
LINE
  8
7
 10
343.855806
 20
-211.1
 30
0.0
 11
350.116096
 21
-213.4
 31
0.0
  0
LINE
  8
7
 10
343.579076
 20
-211.9
 30
0.0
 11
349.839366
 21
-214.2
 31
0.0
  0
ARC
  8
7
 10
347.389056
 20
-223.3
 30
0.0
 40
0.800000
 50
90.0
 51
180.0
  0
ARC
  8
7
 10
347.389056
 20
-224.2
 30
0.0
 40
0.800000
 50
180.0
 51
270.0
  0
ARC
  8
7
 10
351.089056
 20
-215.5
 30
0.0
 40
0.500000
 50
180.0
 51
270.0
  0
LINE
  8
7
 10
338.589056
 20
-198.8
 30
0.0
 11
338.589056
 21
-201.0
 31
0.0
  0
LINE
  8
7
 10
335.589056
 20
-198.8
 30
0.0
 11
335.589056
 21
-201.0
 31
0.0
  0
ARC
  8
7
 10
337.089056
 20
-201.0
 30
0.0
 40
1.500000
 50
180.0
 51
360.0
  0
LINE
  8
7
 10
338.589056
 20
-214.2
 30
0.0
 11
338.589056
 21
-212.0
 31
0.0
  0
LINE
  8
7
 10
335.589056
 20
-214.2
 30
0.0
 11
335.589056
 21
-212.0
 31
0.0
  0
ARC
  8
7
 10
337.089056
 20
-212.0
 30
0.0
 40
1.500000
 50
0.0
 51
180.0
  0
ARC
  8
7
 10
332.624589
 20
-199.5
 30
0.0
 40
0.499996
 50
244.999348
 51
302.539319
  0
ARC
  8
7
 10
332.624580
 20
-199.5
 30
0.0
 40
1.300002
 50
245.000048
 51
302.540020
  0
LINE
  8
7
 10
329.427146
 20
-198.6
 30
0.0
 11
329.089056
 21
-199.3
 31
0.0
  0
LINE
  8
7
 10
332.413276
 20
-200.0
 30
0.0
 11
329.427146
 21
-198.6
 31
0.0
  0
LINE
  8
7
 10
332.075176
 20
-200.7
 30
0.0
 11
329.089056
 21
-199.3
 31
0.0
  0
ARC
  8
7
 10
332.624589
 20
-213.5
 30
0.0
 40
0.499996
 50
57.460681
 51
115.000652
  0
ARC
  8
7
 10
332.624580
 20
-213.5
 30
0.0
 40
1.300002
 50
57.459980
 51
114.999952
  0
LINE
  8
7
 10
329.427146
 20
-214.4
 30
0.0
 11
329.089056
 21
-213.7
 31
0.0
  0
LINE
  8
7
 10
332.413276
 20
-213.0
 30
0.0
 11
329.427146
 21
-214.4
 31
0.0
  0
LINE
  8
7
 10
332.075176
 20
-212.3
 30
0.0
 11
329.089056
 21
-213.7
 31
0.0
  0
ARC
  8
7
 10
337.089047
 20
-206.5
 30
0.0
 40
7.000011
 50
102.373529
 51
122.539876
  0
ARC
  8
7
 10
337.089047
 20
-206.5
 30
0.0
 40
7.000011
 50
237.460124
 51
257.626471
  0
ARC
  8
7
 10
337.089055
 20
-206.5
 30
0.0
 40
6.999998
 50
102.373625
 51
257.626375
  0
ARC
  8
7
 10
337.089052
 20
-206.5
 30
0.0
 40
7.800004
 50
45.717737
 51
122.539958
  0
ARC
  8
7
 10
337.089060
 20
-206.5
 30
0.0
 40
6.999990
 50
45.717767
 51
77.626389
  0
ARC
  8
7
 10
337.089058
 20
-206.5
 30
0.0
 40
7.800004
 50
237.459983
 51
314.282204
  0
ARC
  8
7
 10
337.089057
 20
-206.5
 30
0.0
 40
6.999998
 50
282.373625
 51
437.626375
  0
ARC
  8
7
 10
347.389056
 20
-243.3
 30
0.0
 40
0.800000
 50
90.0
 51
180.0
  0
ARC
  8
7
 10
347.589056
 20
-244.5
 30
0.0
 40
1.0
 50
180.0
 51
270.0
  0
LINE
  8
7
 10
346.589056
 20
-244.5
 30
0.0
 11
346.589056
 21
-213.0
 31
0.0
  0
LINE
  8
7
 10
359.589056
 20
-216.0
 30
0.0
 11
351.089056
 21
-216.0
 31
0.0
  0
LINE
  8
7
 10
359.089056
 20
-198.0
 30
0.0
 11
351.089056
 21
-198.0
 31
0.0
  0
LINE
  8
7
 10
347.389056
 20
-222.5
 30
0.0
 11
359.589056
 21
-222.5
 31
0.0
  0
LINE
  8
7
 10
358.589056
 20
-225.0
 30
0.0
 11
347.389056
 21
-225.0
 31
0.0
  0
LINE
  8
7
 10
359.589056
 20
-242.5
 30
0.0
 11
347.389056
 21
-242.5
 31
0.0
  0
LINE
  8
7
 10
356.591999
 20
-234.3
 30
0.0
 11
359.986113
 21
-237.7
 31
0.0
  0
LINE
  8
7
 10
356.592002
 20
-237.7
 30
0.0
 11
359.986110
 21
-234.3
 31
0.0
  0
POINT
  8
7
 10
358.289056
 20
-236.0
 30
0.0
  0
POINT
  8
7
 10
354.897796
 20
-248.0
 30
0.0
  0
POINT
  8
7
 10
341.397798
 20
-245.5
 30
0.0
  0
LINE
  8
7
 10
346.589056
 20
-200.0
 30
0.0
 11
346.589056
 21
-173.0
 31
0.0
  0
LINE
  8
7
 10
360.589056
 20
-196.5
 30
0.0
 11
360.589056
 21
-189.3
 31
0.0
  0
POINT
  8
7
 10
341.397798
 20
-245.5
 30
0.0
  0
POINT
  8
7
 10
341.397798
 20
-127.5
 30
0.0
  0
LINE
  8
7
 10
426.789056
 20
-245.5
 30
0.0
 11
347.589056
 21
-245.5
 31
0.0
  0
LINE
  8
7
 10
426.789056
 20
-127.5
 30
0.0
 11
347.589056
 21
-127.5
 31
0.0
  0
LINE
  8
7
 10
427.589056
 20
-218.5
 30
0.0
 11
364.589056
 21
-218.5
 31
0.0
  0
LINE
  8
7
 10
427.589056
 20
-154.5
 30
0.0
 11
364.589056
 21
-154.5
 31
0.0
  0
POINT
  8
7
 10
429.889066
 20
-246.5
 30
0.0
  0
POINT
  8
7
 10
329.089058
 20
-213.7
 30
0.0
  0
POINT
  8
7
 10
429.889056
 20
-246.5
 30
0.0
  0
POINT
  8
7
 10
358.289050
 20
-241.8
 30
0.0
  0
POINT
  8
7
 10
429.889066
 20
-246.5
 30
0.0
  0
POINT
  8
7
 10
346.589058
 20
-244.5
 30
0.0
  0
ARC
  8
7
 10
260.0
 20
-128.5
 30
0.0
 40
1.0
 50
0.0
 51
90.0
  0
LINE
  8
7
 10
261.0
 20
-127.5
 30
0.0
 11
261.0
 21
-128.5
 31
0.0
  0
ARC
  8
7
 10
260.0
 20
-127.5
 30
0.0
 40
1.0
 50
0.0
 51
90.0
  0
ARC
  8
7
 10
260.200000
 20
-149.7
 30
0.0
 40
0.800000
 50
270.0
 51
360.0
  0
ARC
  8
7
 10
260.200000
 20
-148.8
 30
0.0
 40
0.800000
 50
0.0
 51
90.0
  0
LINE
  8
7
 10
260.800000
 20
-131.2
 30
0.0
 11
260.800000
 21
-142.8
 31
0.0
  0
LINE
  8
7
 10
242.500000
 20
-131.2
 30
0.0
 11
242.500000
 21
-135.5
 31
0.0
  0
LINE
  8
7
 10
242.500000
 20
-142.8
 30
0.0
 11
242.500000
 21
-138.5
 31
0.0
  0
ARC
  8
7
 10
247.0
 20
-137.0
 30
0.0
 40
1.650000
 50
0.0
 51
180.0
  0
ARC
  8
7
 10
247.0
 20
-137.0
 30
0.0
 40
1.650000
 50
180.0
 51
360.0
  0
ARC
  8
7
 10
247.0
 20
-137.0
 30
0.0
 40
2.0
 50
0.0
 51
180.0
  0
ARC
  8
7
 10
247.0
 20
-137.0
 30
0.0
 40
2.0
 50
180.0
 51
360.0
  0
LINE
  8
7
 10
256.697055
 20
-138.7
 30
0.0
 11
253.302945
 21
-135.3
 31
0.0
  0
LINE
  8
7
 10
253.302942
 20
-138.7
 30
0.0
 11
256.697058
 21
-135.3
 31
0.0
  0
POINT
  8
7
 10
255.0
 20
-137.0
 30
0.0
  0
CIRCLE
  8
7
 10
255.0
 20
-137.0
 30
0.0
 40
5.0
  0
CIRCLE
  8
7
 10
255.0
 20
-137.0
 30
0.0
 40
4.500000
  0
ARC
  8
7
 10
260.0
 20
-157.0
 30
0.0
 40
1.0
 50
0.0
 51
90.0
  0
LINE
  8
7
 10
260.0
 20
-159.6
 30
0.0
 11
259.661905
 21
-160.4
 31
0.0
  0
LINE
  8
7
 10
258.250000
 20
-158.8
 30
0.0
 11
258.250000
 21
-158.5
 31
0.0
  0
LINE
  8
7
 10
258.0
 20
-158.7
 30
0.0
 11
260.0
 21
-159.6
 31
0.0
  0
LINE
  8
7
 10
258.0
 20
-159.6
 30
0.0
 11
259.661905
 21
-160.4
 31
0.0
  0
LINE
  8
7
 10
260.0
 20
-173.4
 30
0.0
 11
259.661905
 21
-172.6
 31
0.0
  0
LINE
  8
7
 10
258.0
 20
-173.4
 30
0.0
 11
259.661905
 21
-172.6
 31
0.0
  0
LINE
  8
7
 10
258.250000
 20
-173.3
 30
0.0
 11
258.250000
 21
-159.7
 31
0.0
  0
ARC
  8
7
 10
260.0
 20
-174.0
 30
0.0
 40
1.0
 50
270.0
 51
360.0
  0
LINE
  8
7
 10
258.250000
 20
-175.0
 30
0.0
 11
258.250000
 21
-174.2
 31
0.0
  0
ARC
  8
7
 10
260.200000
 20
-186.1
 30
0.0
 40
0.800000
 50
0.0
 51
90.0
  0
ARC
  8
7
 10
260.200000
 20
-186.9
 30
0.0
 40
0.800000
 50
270.0
 51
360.0
  0
LINE
  8
7
 10
258.0
 20
-174.4
 30
0.0
 11
258.0
 21
-158.6
 31
0.0
  0
LINE
  8
7
 10
258.0
 20
-174.3
 30
0.0
 11
260.0
 21
-173.4
 31
0.0
  0
LINE
  8
7
 10
245.750000
 20
-159.5
 30
0.0
 11
245.750000
 21
-158.5
 31
0.0
  0
LINE
  8
7
 10
246.0
 20
-174.4
 30
0.0
 11
246.0
 21
-158.6
 31
0.0
  0
LINE
  8
7
 10
258.250000
 20
-158.5
 30
0.0
 11
245.750000
 21
-158.5
 31
0.0
  0
LINE
  8
7
 10
246.0
 20
-158.6
 30
0.0
 11
258.0
 21
-158.6
 31
0.0
  0
LINE
  8
7
 10
246.0
 20
-159.3
 30
0.0
 11
258.0
 21
-159.3
 31
0.0
  0
LINE
  8
7
 10
246.0
 20
-160.8
 30
0.0
 11
258.0
 21
-160.8
 31
0.0
  0
LINE
  8
7
 10
246.0
 20
-172.2
 30
0.0
 11
258.0
 21
-172.2
 31
0.0
  0
LINE
  8
7
 10
246.0
 20
-173.7
 30
0.0
 11
258.0
 21
-173.7
 31
0.0
  0
LINE
  8
7
 10
246.0
 20
-174.4
 30
0.0
 11
258.0
 21
-174.4
 31
0.0
  0
LINE
  8
7
 10
232.500000
 20
-127.5
 30
0.0
 11
232.500000
 21
-125.0
 31
0.0
  0
LINE
  8
7
 10
227.500000
 20
-127.5
 30
0.0
 11
227.500000
 21
-125.0
 31
0.0
  0
LINE
  8
7
 10
227.500000
 20
-125.0
 30
0.0
 11
232.500000
 21
-125.0
 31
0.0
  0
LINE
  8
7
 10
240.500000
 20
-131.2
 30
0.0
 11
240.500000
 21
-135.5
 31
0.0
  0
ARC
  8
7
 10
239.0
 20
-147.0
 30
0.0
 40
1.0
 50
180.0
 51
270.0
  0
ARC
  8
7
 10
239.0
 20
-151.5
 30
0.0
 40
1.0
 50
90.0
 51
180.0
  0
LINE
  8
7
 10
240.500000
 20
-142.8
 30
0.0
 11
240.500000
 21
-138.5
 31
0.0
  0
LINE
  8
7
 10
238.300000
 20
-131.2
 30
0.0
 11
238.300000
 21
-142.8
 31
0.0
  0
ARC
  8
7
 10
232.225500
 20
-137.1
 30
0.0
 40
0.774503
 50
272.022604
 51
440.022603
  0
ARC
  8
7
 10
229.087268
 20
-134.4
 30
0.0
 40
0.360122
 50
89.999091
 51
150.293366
  0
LINE
  8
7
 10
229.624023
 20
-134.0
 30
0.0
 11
229.087274
 21
-134.0
 31
0.0
  0
LINE
  8
7
 10
228.136502
 20
-139.2
 30
0.0
 11
228.515399
 21
-139.8
 31
0.0
  0
LINE
  8
7
 10
229.341636
 20
-139.2
 30
0.0
 11
229.181850
 21
-139.0
 31
0.0
  0
LINE
  8
7
 10
229.797739
 20
-134.3
 30
0.0
 11
229.500684
 21
-134.8
 31
0.0
  0
ARC
  8
7
 10
228.785563
 20
-138.8
 30
0.0
 40
0.785563
 50
92.022689
 51
214.285976
  0
ARC
  8
7
 10
228.928517
 20
-139.5
 30
0.0
 40
0.499999
 50
214.285769
 51
394.285769
  0
ARC
  8
7
 10
229.401963
 20
-134.9
 30
0.0
 40
0.901965
 50
150.294129
 51
260.022459
  0
LINE
  8
7
 10
228.774476
 20
-134.2
 30
0.0
 11
228.618534
 21
-134.5
 31
0.0
  0
ARC
  8
7
 10
229.624023
 20
-134.2
 30
0.0
 40
0.200000
 50
330.294142
 51
449.999868
  0
LINE
  8
7
 10
229.181850
 20
-139.0
 30
0.0
 11
232.288129
 21
-138.9
 31
0.0
  0
LINE
  8
7
 10
228.757836
 20
-138.0
 30
0.0
 11
232.252835
 21
-137.9
 31
0.0
  0
LINE
  8
7
 10
229.245687
 20
-135.8
 30
0.0
 11
232.359690
 21
-136.3
 31
0.0
  0
LINE
  8
7
 10
229.500684
 20
-134.8
 30
0.0
 11
232.532949
 21
-135.4
 31
0.0
  0
ARC
  8
7
 10
232.225500
 20
-137.1
 30
0.0
 40
1.774496
 50
272.022603
 51
440.022603
  0
ARC
  8
7
 10
239.0
 20
-155.0
 30
0.0
 40
1.0
 50
180.0
 51
270.0
  0
ARC
  8
7
 10
239.500000
 20
-176.5
 30
0.0
 40
1.500000
 50
90.0
 51
180.0
  0
ARC
  8
7
 10
239.500000
 20
-189.3
 30
0.0
 40
1.500000
 50
90.0
 51
180.0
  0
ARC
  8
7
 10
239.500000
 20
-183.7
 30
0.0
 40
1.500000
 50
180.0
 51
270.0
  0
LINE
  8
7
 10
218.878850
 20
-173.5
 30
0.0
 11
218.878850
 21
-159.5
 31
0.0
  0
LINE
  8
7
 10
238.0
 20
-159.5
 30
0.0
 11
238.0
 21
-127.5
 31
0.0
  0
ARC
  8
7
 10
210.0
 20
-125.5
 30
0.0
 40
2.0
 50
180.0
 51
270.0
  0
ARC
  8
7
 10
200.0
 20
-125.5
 30
0.0
 40
2.0
 50
270.0
 51
360.0
  0
ARC
  8
7
 10
205.0
 20
-125.5
 30
0.0
 40
3.0
 50
0.0
 51
180.0
  0
ARC
  8
7
 10
205.0
 20
-125.5
 30
0.0
 40
1.0
 50
0.0
 51
180.0
  0
ARC
  8
7
 10
205.0
 20
-125.5
 30
0.0
 40
1.0
 50
180.0
 51
360.0
  0
LINE
  8
7
 10
190.157934
 20
-173.5
 30
0.0
 11
190.157934
 21
-159.5
 31
0.0
  0
LINE
  8
7
 10
260.200000
 20
-185.3
 30
0.0
 11
239.500000
 21
-185.3
 31
0.0
  0
LINE
  8
7
 10
260.200000
 20
-187.8
 30
0.0
 11
239.500000
 21
-187.8
 31
0.0
  0
LINE
  8
7
 10
260.0
 20
-156.0
 30
0.0
 11
239.0
 21
-156.0
 31
0.0
  0
LINE
  8
7
 10
260.0
 20
-175.0
 30
0.0
 11
239.500000
 21
-175.0
 31
0.0
  0
LINE
  8
7
 10
260.200000
 20
-148.0
 30
0.0
 11
239.0
 21
-148.0
 31
0.0
  0
LINE
  8
7
 10
261.0
 20
-143.0
 30
0.0
 11
238.0
 21
-143.0
 31
0.0
  0
LINE
  8
7
 10
261.0
 20
-131.0
 30
0.0
 11
238.0
 21
-131.0
 31
0.0
  0
LINE
  8
7
 10
260.200000
 20
-150.5
 30
0.0
 11
239.0
 21
-150.5
 31
0.0
  0
LINE
  8
7
 10
260.0
 20
-126.5
 30
0.0
 11
232.500000
 21
-126.5
 31
0.0
  0
ARC
  8
7
 10
241.500000
 20
-140.0
 30
0.0
 40
1.0
 50
0.0
 51
180.0
  0
ARC
  8
7
 10
241.500000
 20
-140.0
 30
0.0
 40
1.0
 50
180.0
 51
360.0
  0
LINE
  8
7
 10
242.500000
 20
-138.5
 30
0.0
 11
240.500000
 21
-138.5
 31
0.0
  0
ARC
  8
7
 10
241.500000
 20
-134.0
 30
0.0
 40
1.0
 50
0.0
 51
180.0
  0
ARC
  8
7
 10
241.500000
 20
-134.0
 30
0.0
 40
1.0
 50
180.0
 51
360.0
  0
LINE
  8
7
 10
242.500000
 20
-135.5
 30
0.0
 11
240.500000
 21
-135.5
 31
0.0
  0
LINE
  8
7
 10
260.800000
 20
-142.8
 30
0.0
 11
238.300000
 21
-142.8
 31
0.0
  0
LINE
  8
7
 10
260.800000
 20
-131.2
 30
0.0
 11
238.300000
 21
-131.2
 31
0.0
  0
ARC
  8
7
 10
260.0
 20
-199.0
 30
0.0
 40
1.0
 50
0.0
 51
90.0
  0
LINE
  8
7
 10
260.0
 20
-199.6
 30
0.0
 11
259.661905
 21
-200.4
 31
0.0
  0
LINE
  8
7
 10
258.0
 20
-198.7
 30
0.0
 11
260.0
 21
-199.6
 31
0.0
  0
LINE
  8
7
 10
258.0
 20
-199.6
 30
0.0
 11
259.661905
 21
-200.4
 31
0.0
  0
LINE
  8
7
 10
260.0
 20
-213.4
 30
0.0
 11
259.661905
 21
-212.6
 31
0.0
  0
LINE
  8
7
 10
258.250000
 20
-214.2
 30
0.0
 11
258.250000
 21
-214.5
 31
0.0
  0
LINE
  8
7
 10
258.0
 20
-214.3
 30
0.0
 11
260.0
 21
-213.4
 31
0.0
  0
LINE
  8
7
 10
258.0
 20
-213.4
 30
0.0
 11
259.661905
 21
-212.6
 31
0.0
  0
LINE
  8
7
 10
258.250000
 20
-199.7
 30
0.0
 11
258.250000
 21
-213.3
 31
0.0
  0
LINE
  8
7
 10
258.0
 20
-198.6
 30
0.0
 11
258.0
 21
-214.4
 31
0.0
  0
ARC
  8
7
 10
260.200000
 20
-224.2
 30
0.0
 40
0.800000
 50
270.0
 51
360.0
  0
ARC
  8
7
 10
260.0
 20
-216.0
 30
0.0
 40
1.0
 50
270.0
 51
360.0
  0
LINE
  8
7
 10
245.750000
 20
-213.5
 30
0.0
 11
245.750000
 21
-214.5
 31
0.0
  0
LINE
  8
7
 10
246.0
 20
-198.6
 30
0.0
 11
246.0
 21
-214.4
 31
0.0
  0
LINE
  8
7
 10
242.500000
 20
-230.2
 30
0.0
 11
242.500000
 21
-234.5
 31
0.0
  0
LINE
  8
7
 10
258.250000
 20
-214.5
 30
0.0
 11
245.750000
 21
-214.5
 31
0.0
  0
LINE
  8
7
 10
246.0
 20
-214.4
 30
0.0
 11
258.0
 21
-214.4
 31
0.0
  0
LINE
  8
7
 10
246.0
 20
-200.8
 30
0.0
 11
258.0
 21
-200.8
 31
0.0
  0
LINE
  8
7
 10
246.0
 20
-198.6
 30
0.0
 11
258.0
 21
-198.6
 31
0.0
  0
LINE
  8
7
 10
246.0
 20
-199.3
 30
0.0
 11
258.0
 21
-199.3
 31
0.0
  0
LINE
  8
7
 10
246.0
 20
-212.2
 30
0.0
 11
258.0
 21
-212.2
 31
0.0
  0
LINE
  8
7
 10
246.0
 20
-213.7
 30
0.0
 11
258.0
 21
-213.7
 31
0.0
  0
ARC
  8
7
 10
260.0
 20
-244.5
 30
0.0
 40
1.0
 50
270.0
 51
360.0
  0
LINE
  8
7
 10
261.0
 20
-245.5
 30
0.0
 11
261.0
 21
-244.5
 31
0.0
  0
ARC
  8
7
 10
260.0
 20
-245.5
 30
0.0
 40
1.0
 50
270.0
 51
360.0
  0
ARC
  8
7
 10
247.0
 20
-236.0
 30
0.0
 40
2.0
 50
0.0
 51
180.0
  0
ARC
  8
7
 10
247.0
 20
-236.0
 30
0.0
 40
2.0
 50
180.0
 51
360.0
  0
ARC
  8
7
 10
247.0
 20
-236.0
 30
0.0
 40
1.650000
 50
0.0
 51
180.0
  0
ARC
  8
7
 10
247.0
 20
-236.0
 30
0.0
 40
1.650000
 50
180.0
 51
360.0
  0
LINE
  8
7
 10
242.500000
 20
-241.8
 30
0.0
 11
242.500000
 21
-237.5
 31
0.0
  0
LINE
  8
7
 10
256.697055
 20
-234.3
 30
0.0
 11
253.302945
 21
-237.7
 31
0.0
  0
LINE
  8
7
 10
253.302942
 20
-234.3
 30
0.0
 11
256.697058
 21
-237.7
 31
0.0
  0
POINT
  8
7
 10
255.0
 20
-236.0
 30
0.0
  0
LINE
  8
7
 10
260.800000
 20
-241.8
 30
0.0
 11
260.800000
 21
-230.2
 31
0.0
  0
POINT
  8
7
 10
261.0
 20
-244.5
 30
0.0
  0
POINT
  8
7
 10
255.0
 20
-243.6
 30
0.0
  0
ARC
  8
7
 10
239.500000
 20
-196.5
 30
0.0
 40
1.500000
 50
180.0
 51
270.0
  0
ARC
  8
7
 10
239.0
 20
-226.0
 30
0.0
 40
1.0
 50
90.0
 51
180.0
  0
ARC
  8
7
 10
239.0
 20
-221.5
 30
0.0
 40
1.0
 50
180.0
 51
270.0
  0
ARC
  8
7
 10
239.0
 20
-218.0
 30
0.0
 40
1.0
 50
90.0
 51
180.0
  0
LINE
  8
7
 10
240.500000
 20
-230.2
 30
0.0
 11
240.500000
 21
-234.5
 31
0.0
  0
ARC
  8
7
 10
232.966687
 20
-234.0
 30
0.0
 40
0.033312
 50
269.999282
 51
406.760353
  0
LINE
  8
7
 10
232.681550
 20
-233.7
 30
0.0
 11
232.989508
 21
-234.0
 31
0.0
  0
ARC
  8
7
 10
232.966687
 20
-233.4
 30
0.0
 40
0.416233
 50
90.000009
 51
226.761080
  0
ARC
  8
7
 10
228.500000
 20
-234.6
 30
0.0
 40
0.500000
 50
90.0
 51
270.0
  0
LINE
  8
7
 10
228.500000
 20
-235.1
 30
0.0
 11
231.526629
 21
-235.1
 31
0.0
  0
LINE
  8
7
 10
232.966687
 20
-234.1
 30
0.0
 11
228.500000
 21
-234.1
 31
0.0
  0
ARC
  8
7
 10
232.966687
 20
-234.0
 30
0.0
 40
1.033314
 50
296.509024
 51
449.999989
  0
LINE
  8
7
 10
218.878850
 20
-199.5
 30
0.0
 11
218.878850
 21
-213.5
 31
0.0
  0
LINE
  8
7
 10
232.500000
 20
-245.5
 30
0.0
 11
232.500000
 21
-248.0
 31
0.0
  0
LINE
  8
7
 10
227.500000
 20
-245.5
 30
0.0
 11
227.500000
 21
-248.0
 31
0.0
  0
ARC
  8
7
 10
228.500000
 20
-238.5
 30
0.0
 40
0.500000
 50
90.040107
 51
270.040107
  0
LINE
  8
7
 10
231.533314
 20
-239.0
 30
0.0
 11
228.455991
 21
-239.0
 31
0.0
  0
LINE
  8
7
 10
228.432050
 20
-238.0
 30
0.0
 11
231.511032
 21
-238.0
 31
0.0
  0
LINE
  8
7
 10
227.500000
 20
-248.0
 30
0.0
 11
232.500000
 21
-248.0
 31
0.0
  0
LINE
  8
7
 10
238.0
 20
-245.5
 30
0.0
 11
238.0
 21
-213.5
 31
0.0
  0
ARC
  8
7
 10
231.533313
 20
-236.5
 30
0.0
 40
2.466689
 50
270.000026
 51
399.728390
  0
ARC
  8
7
 10
231.533314
 20
-236.5
 30
0.0
 40
1.466690
 50
269.129539
 51
449.999988
  0
LINE
  8
7
 10
238.300000
 20
-241.8
 30
0.0
 11
238.300000
 21
-230.2
 31
0.0
  0
LINE
  8
7
 10
240.500000
 20
-241.8
 30
0.0
 11
240.500000
 21
-237.5
 31
0.0
  0
LINE
  8
7
 10
190.157934
 20
-199.5
 30
0.0
 11
190.157934
 21
-213.5
 31
0.0
  0
LINE
  8
7
 10
260.0
 20
-198.0
 30
0.0
 11
239.500000
 21
-198.0
 31
0.0
  0
LINE
  8
7
 10
261.0
 20
-230.0
 30
0.0
 11
238.0
 21
-230.0
 31
0.0
  0
LINE
  8
7
 10
261.0
 20
-242.0
 30
0.0
 11
238.0
 21
-242.0
 31
0.0
  0
LINE
  8
7
 10
261.0
 20
-222.5
 30
0.0
 11
239.0
 21
-222.5
 31
0.0
  0
LINE
  8
7
 10
260.200000
 20
-225.0
 30
0.0
 11
239.0
 21
-225.0
 31
0.0
  0
LINE
  8
7
 10
260.0
 20
-217.0
 30
0.0
 11
239.0
 21
-217.0
 31
0.0
  0
ARC
  8
7
 10
241.500000
 20
-239.0
 30
0.0
 40
1.0
 50
0.0
 51
180.0
  0
ARC
  8
7
 10
241.500000
 20
-239.0
 30
0.0
 40
1.0
 50
180.0
 51
360.0
  0
LINE
  8
7
 10
242.500000
 20
-237.5
 30
0.0
 11
240.500000
 21
-237.5
 31
0.0
  0
ARC
  8
7
 10
241.500000
 20
-233.0
 30
0.0
 40
1.0
 50
0.0
 51
180.0
  0
ARC
  8
7
 10
241.500000
 20
-233.0
 30
0.0
 40
1.0
 50
180.0
 51
360.0
  0
LINE
  8
7
 10
242.500000
 20
-234.5
 30
0.0
 11
240.500000
 21
-234.5
 31
0.0
  0
LINE
  8
7
 10
260.800000
 20
-230.2
 30
0.0
 11
238.300000
 21
-230.2
 31
0.0
  0
LINE
  8
7
 10
260.800000
 20
-241.8
 30
0.0
 11
238.300000
 21
-241.8
 31
0.0
  0
LINE
  8
7
 10
260.0
 20
-246.5
 30
0.0
 11
232.500000
 21
-246.5
 31
0.0
  0
LINE
  8
7
 10
238.0
 20
-199.5
 30
0.0
 11
238.0
 21
-173.5
 31
0.0
  0
LINE
  8
7
 10
261.0
 20
-244.5
 30
0.0
 11
261.0
 21
-128.5
 31
0.0
  0
POINT
  8
7
 10
261.416666
 20
-206.5
 30
0.0
  0
POINT
  8
7
 10
261.416666
 20
-166.5
 30
0.0
  0
LINE
  8
7
 10
182.500000
 20
-127.5
 30
0.0
 11
182.500000
 21
-125.0
 31
0.0
  0
LINE
  8
7
 10
177.500000
 20
-127.5
 30
0.0
 11
177.500000
 21
-125.0
 31
0.0
  0
LINE
  8
7
 10
182.500000
 20
-125.0
 30
0.0
 11
177.500000
 21
-125.0
 31
0.0
  0
ARC
  8
7
 10
180.716354
 20
-146.5
 30
0.0
 40
1.283648
 50
294.565051
 51
425.434949
  0
ARC
  8
7
 10
172.750001
 20
-150.7
 30
0.0
 40
0.749998
 50
114.565122
 51
294.565122
  0
ARC
  8
7
 10
172.750001
 20
-142.3
 30
0.0
 40
0.750002
 50
65.435037
 51
245.435037
  0
LINE
  8
7
 10
181.250000
 20
-145.3
 30
0.0
 11
173.061795
 21
-141.6
 31
0.0
  0
LINE
  8
7
 10
180.195928
 20
-146.5
 30
0.0
 11
172.438206
 21
-143.0
 31
0.0
  0
LINE
  8
7
 10
180.195928
 20
-146.5
 30
0.0
 11
172.438206
 21
-150.0
 31
0.0
  0
LINE
  8
7
 10
181.250000
 20
-147.7
 30
0.0
 11
173.061795
 21
-151.4
 31
0.0
  0
ARC
  8
7
 10
167.500000
 20
-142.5
 30
0.0
 40
1.500000
 50
270.0
 51
360.0
  0
ARC
  8
7
 10
167.500000
 20
-132.0
 30
0.0
 40
1.500000
 50
0.0
 51
90.0
  0
ARC
  8
7
 10
157.0
 20
-157.5
 30
0.0
 40
1.0
 50
0.0
 51
180.0
  0
ARC
  8
7
 10
157.0
 20
-157.5
 30
0.0
 40
1.0
 50
180.0
 51
360.0
  0
ARC
  8
7
 10
167.500000
 20
-176.5
 30
0.0
 40
1.500000
 50
0.0
 51
90.0
  0
ARC
  8
7
 10
167.500000
 20
-189.3
 30
0.0
 40
1.500000
 50
0.0
 51
90.0
  0
ARC
  8
7
 10
167.500000
 20
-183.7
 30
0.0
 40
1.500000
 50
270.0
 51
360.0
  0
LINE
  8
7
 10
163.150000
 20
-173.7
 30
0.0
 11
163.0
 21
-173.7
 31
0.0
  0
LINE
  8
7
 10
163.150000
 20
-173.7
 30
0.0
 11
163.150000
 21
-173.5
 31
0.0
  0
LINE
  8
7
 10
163.0
 20
-174.4
 30
0.0
 11
163.0
 21
-158.6
 31
0.0
  0
LINE
  8
7
 10
163.150000
 20
-159.5
 30
0.0
 11
163.150000
 21
-144.0
 31
0.0
  0
LINE
  8
7
 10
169.0
 20
-159.5
 30
0.0
 11
169.0
 21
-127.5
 31
0.0
  0
LINE
  8
7
 10
163.0
 20
-173.5
 30
0.0
 11
163.0
 21
-144.5
 31
0.0
  0
ARC
  8
7
 10
149.800000
 20
-129.7
 30
0.0
 40
0.800000
 50
180.0
 51
270.0
  0
LINE
  8
7
 10
149.0
 20
-127.5
 30
0.0
 11
149.0
 21
-128.5
 31
0.0
  0
ARC
  8
7
 10
150.0
 20
-128.5
 30
0.0
 40
1.0
 50
90.0
 51
180.0
  0
ARC
  8
7
 10
150.0
 20
-127.5
 30
0.0
 40
1.0
 50
90.0
 51
180.0
  0
ARC
  8
7
 10
149.500000
 20
-144.5
 30
0.0
 40
0.500000
 50
90.0
 51
180.0
  0
LINE
  8
7
 10
155.0
 20
-158.5
 30
0.0
 11
155.0
 21
-156.5
 31
0.0
  0
LINE
  8
7
 10
151.0
 20
-158.7
 30
0.0
 11
149.0
 21
-159.6
 31
0.0
  0
LINE
  8
7
 10
149.0
 20
-159.6
 30
0.0
 11
149.338095
 21
-160.4
 31
0.0
  0
LINE
  8
7
 10
151.0
 20
-159.6
 30
0.0
 11
149.338095
 21
-160.4
 31
0.0
  0
LINE
  8
7
 10
149.0
 20
-173.4
 30
0.0
 11
149.338095
 21
-172.6
 31
0.0
  0
LINE
  8
7
 10
151.0
 20
-173.4
 30
0.0
 11
149.338095
 21
-172.6
 31
0.0
  0
LINE
  8
7
 10
150.850000
 20
-173.3
 30
0.0
 11
150.850000
 21
-159.7
 31
0.0
  0
ARC
  8
7
 10
149.500000
 20
-174.5
 30
0.0
 40
0.500000
 50
180.0
 51
270.0
  0
ARC
  8
7
 10
149.800000
 20
-186.1
 30
0.0
 40
0.800000
 50
90.0
 51
180.0
  0
ARC
  8
7
 10
149.800000
 20
-186.9
 30
0.0
 40
0.800000
 50
180.0
 51
270.0
  0
LINE
  8
7
 10
151.0
 20
-174.3
 30
0.0
 11
149.0
 21
-173.4
 31
0.0
  0
LINE
  8
7
 10
151.0
 20
-174.4
 30
0.0
 11
151.0
 21
-158.6
 31
0.0
  0
LINE
  8
7
 10
150.850000
 20
-158.8
 30
0.0
 11
150.850000
 21
-144.0
 31
0.0
  0
LINE
  8
7
 10
151.0
 20
-173.5
 30
0.0
 11
151.0
 21
-144.5
 31
0.0
  0
LINE
  8
7
 10
167.500000
 20
-144.0
 30
0.0
 11
149.500000
 21
-144.0
 31
0.0
  0
LINE
  8
7
 10
149.800000
 20
-130.5
 30
0.0
 11
167.500000
 21
-130.5
 31
0.0
  0
LINE
  8
7
 10
149.800000
 20
-187.8
 30
0.0
 11
167.500000
 21
-187.8
 31
0.0
  0
LINE
  8
7
 10
149.800000
 20
-185.3
 30
0.0
 11
167.500000
 21
-185.3
 31
0.0
  0
LINE
  8
7
 10
149.500000
 20
-175.0
 30
0.0
 11
167.500000
 21
-175.0
 31
0.0
  0
LINE
  8
7
 10
150.0
 20
-126.5
 30
0.0
 11
177.500000
 21
-126.5
 31
0.0
  0
LINE
  8
7
 10
163.0
 20
-158.5
 30
0.0
 11
155.0
 21
-158.5
 31
0.0
  0
LINE
  8
7
 10
163.0
 20
-156.5
 30
0.0
 11
155.0
 21
-156.5
 31
0.0
  0
LINE
  8
7
 10
158.697055
 20
-152.2
 30
0.0
 11
155.302945
 21
-148.8
 31
0.0
  0
LINE
  8
7
 10
155.302942
 20
-152.2
 30
0.0
 11
158.697058
 21
-148.8
 31
0.0
  0
POINT
  8
7
 10
157.0
 20
-150.5
 30
0.0
  0
CIRCLE
  8
7
 10
157.0
 20
-150.5
 30
0.0
 40
5.0
  0
CIRCLE
  8
7
 10
157.0
 20
-150.5
 30
0.0
 40
4.500000
  0
LINE
  8
7
 10
163.0
 20
-144.5
 30
0.0
 11
151.0
 21
-144.5
 31
0.0
  0
LINE
  8
7
 10
163.0
 20
-173.5
 30
0.0
 11
151.0
 21
-173.5
 31
0.0
  0
LINE
  8
7
 10
163.0
 20
-158.6
 30
0.0
 11
151.0
 21
-158.6
 31
0.0
  0
LINE
  8
7
 10
163.0
 20
-160.8
 30
0.0
 11
151.0
 21
-160.8
 31
0.0
  0
LINE
  8
7
 10
163.0
 20
-159.3
 30
0.0
 11
151.0
 21
-159.3
 31
0.0
  0
LINE
  8
7
 10
163.0
 20
-174.4
 30
0.0
 11
151.0
 21
-174.4
 31
0.0
  0
LINE
  8
7
 10
163.0
 20
-172.2
 30
0.0
 11
151.0
 21
-172.2
 31
0.0
  0
LINE
  8
7
 10
163.0
 20
-173.7
 30
0.0
 11
151.0
 21
-173.7
 31
0.0
  0
ARC
  8
7
 10
177.0
 20
-226.5
 30
0.0
 40
5.0
 50
270.0
 51
450.0
  0
ARC
  8
7
 10
177.0
 20
-226.5
 30
0.0
 40
3.500000
 50
270.0
 51
450.0
  0
ARC
  8
7
 10
172.750000
 20
-222.3
 30
0.0
 40
0.750000
 50
90.0
 51
270.0
  0
ARC
  8
7
 10
172.750000
 20
-230.8
 30
0.0
 40
0.750000
 50
90.0
 51
270.0
  0
LINE
  8
7
 10
177.0
 20
-231.5
 30
0.0
 11
172.750000
 21
-231.5
 31
0.0
  0
LINE
  8
7
 10
177.0
 20
-221.5
 30
0.0
 11
172.750000
 21
-221.5
 31
0.0
  0
LINE
  8
7
 10
177.0
 20
-223.0
 30
0.0
 11
172.750000
 21
-223.0
 31
0.0
  0
LINE
  8
7
 10
177.0
 20
-230.0
 30
0.0
 11
172.750000
 21
-230.0
 31
0.0
  0
ARC
  8
7
 10
167.500000
 20
-196.5
 30
0.0
 40
1.500000
 50
270.0
 51
360.0
  0
LINE
  8
7
 10
163.0
 20
-198.6
 30
0.0
 11
163.0
 21
-214.4
 31
0.0
  0
ARC
  8
7
 10
167.500000
 20
-230.5
 30
0.0
 40
1.500000
 50
0.0
 51
90.0
  0
LINE
  8
7
 10
163.150000
 20
-213.5
 30
0.0
 11
163.150000
 21
-229.0
 31
0.0
  0
LINE
  8
7
 10
163.0
 20
-199.5
 30
0.0
 11
163.0
 21
-228.5
 31
0.0
  0
ARC
  8
7
 10
157.0
 20
-215.5
 30
0.0
 40
1.0
 50
0.0
 51
180.0
  0
ARC
  8
7
 10
157.0
 20
-215.5
 30
0.0
 40
1.0
 50
180.0
 51
360.0
  0
LINE
  8
7
 10
182.500000
 20
-245.5
 30
0.0
 11
182.500000
 21
-248.0
 31
0.0
  0
LINE
  8
7
 10
177.500000
 20
-245.5
 30
0.0
 11
177.500000
 21
-248.0
 31
0.0
  0
LINE
  8
7
 10
182.500000
 20
-248.0
 30
0.0
 11
177.500000
 21
-248.0
 31
0.0
  0
ARC
  8
7
 10
167.500000
 20
-241.0
 30
0.0
 40
1.500000
 50
270.0
 51
360.0
  0
LINE
  8
7
 10
169.0
 20
-245.5
 30
0.0
 11
169.0
 21
-213.5
 31
0.0
  0
ARC
  8
7
 10
149.500000
 20
-198.5
 30
0.0
 40
0.500000
 50
90.0
 51
180.0
  0
LINE
  8
7
 10
149.0
 20
-199.6
 30
0.0
 11
149.338095
 21
-200.4
 31
0.0
  0
LINE
  8
7
 10
151.0
 20
-199.6
 30
0.0
 11
149.338095
 21
-200.4
 31
0.0
  0
LINE
  8
7
 10
151.0
 20
-198.7
 30
0.0
 11
149.0
 21
-199.6
 31
0.0
  0
LINE
  8
7
 10
149.0
 20
-213.4
 30
0.0
 11
149.338095
 21
-212.6
 31
0.0
  0
LINE
  8
7
 10
151.0
 20
-213.4
 30
0.0
 11
149.338095
 21
-212.6
 31
0.0
  0
LINE
  8
7
 10
151.0
 20
-214.3
 30
0.0
 11
149.0
 21
-213.4
 31
0.0
  0
LINE
  8
7
 10
150.850000
 20
-199.7
 30
0.0
 11
150.850000
 21
-213.3
 31
0.0
  0
LINE
  8
7
 10
151.0
 20
-198.6
 30
0.0
 11
151.0
 21
-214.4
 31
0.0
  0
ARC
  8
7
 10
149.500000
 20
-228.5
 30
0.0
 40
0.500000
 50
180.0
 51
270.0
  0
LINE
  8
7
 10
150.850000
 20
-214.2
 30
0.0
 11
150.850000
 21
-229.0
 31
0.0
  0
LINE
  8
7
 10
151.0
 20
-199.5
 30
0.0
 11
151.0
 21
-228.5
 31
0.0
  0
LINE
  8
7
 10
151.0
 20
-199.5
 30
0.0
 11
151.0
 21
-228.5
 31
0.0
  0
LINE
  8
7
 10
155.0
 20
-214.5
 30
0.0
 11
155.0
 21
-216.5
 31
0.0
  0
ARC
  8
7
 10
149.800000
 20
-243.3
 30
0.0
 40
0.800000
 50
90.0
 51
180.0
  0
LINE
  8
7
 10
149.0
 20
-245.5
 30
0.0
 11
149.0
 21
-244.5
 31
0.0
  0
ARC
  8
7
 10
150.0
 20
-244.5
 30
0.0
 40
1.0
 50
180.0
 51
270.0
  0
ARC
  8
7
 10
150.0
 20
-245.5
 30
0.0
 40
1.0
 50
180.0
 51
270.0
  0
LINE
  8
7
 10
149.500000
 20
-198.0
 30
0.0
 11
167.500000
 21
-198.0
 31
0.0
  0
LINE
  8
7
 10
167.500000
 20
-229.0
 30
0.0
 11
149.500000
 21
-229.0
 31
0.0
  0
LINE
  8
7
 10
149.800000
 20
-242.5
 30
0.0
 11
167.500000
 21
-242.5
 31
0.0
  0
LINE
  8
7
 10
163.0
 20
-199.5
 30
0.0
 11
151.0
 21
-199.5
 31
0.0
  0
LINE
  8
7
 10
163.0
 20
-228.5
 30
0.0
 11
151.0
 21
-228.5
 31
0.0
  0
LINE
  8
7
 10
163.0
 20
-214.5
 30
0.0
 11
155.0
 21
-214.5
 31
0.0
  0
LINE
  8
7
 10
163.0
 20
-216.5
 30
0.0
 11
155.0
 21
-216.5
 31
0.0
  0
LINE
  8
7
 10
158.697055
 20
-220.8
 30
0.0
 11
155.302945
 21
-224.2
 31
0.0
  0
LINE
  8
7
 10
155.302942
 20
-220.8
 30
0.0
 11
158.697058
 21
-224.2
 31
0.0
  0
POINT
  8
7
 10
157.0
 20
-222.5
 30
0.0
  0
LINE
  8
7
 10
150.0
 20
-246.5
 30
0.0
 11
177.500000
 21
-246.5
 31
0.0
  0
LINE
  8
7
 10
163.0
 20
-214.4
 30
0.0
 11
151.0
 21
-214.4
 31
0.0
  0
LINE
  8
7
 10
163.0
 20
-213.7
 30
0.0
 11
151.0
 21
-213.7
 31
0.0
  0
LINE
  8
7
 10
163.0
 20
-212.2
 30
0.0
 11
151.0
 21
-212.2
 31
0.0
  0
LINE
  8
7
 10
163.0
 20
-198.6
 30
0.0
 11
151.0
 21
-198.6
 31
0.0
  0
LINE
  8
7
 10
163.0
 20
-199.3
 30
0.0
 11
151.0
 21
-199.3
 31
0.0
  0
LINE
  8
7
 10
163.0
 20
-200.8
 30
0.0
 11
151.0
 21
-200.8
 31
0.0
  0
POINT
  8
7
 10
149.000008
 20
-244.5
 30
0.0
  0
POINT
  8
7
 10
157.000008
 20
-230.2
 30
0.0
  0
LINE
  8
7
 10
169.0
 20
-199.5
 30
0.0
 11
169.0
 21
-173.5
 31
0.0
  0
LINE
  8
7
 10
149.0
 20
-128.5
 30
0.0
 11
149.0
 21
-244.5
 31
0.0
  0
POINT
  8
7
 10
150.477837
 20
-222.5
 30
0.0
  0
POINT
  8
7
 10
150.477837
 20
-150.5
 30
0.0
  0
LINE
  8
7
 10
150.0
 20
-127.5
 30
0.0
 11
260.0
 21
-127.5
 31
0.0
  0
LINE
  8
7
 10
150.0
 20
-245.5
 30
0.0
 11
260.0
 21
-245.5
 31
0.0
  0
LINE
  8
7
 10
258.0
 20
-213.5
 30
0.0
 11
151.0
 21
-213.5
 31
0.0
  0
LINE
  8
7
 10
258.0
 20
-199.5
 30
0.0
 11
151.0
 21
-199.5
 31
0.0
  0
LINE
  8
7
 10
258.0
 20
-173.5
 30
0.0
 11
151.0
 21
-173.5
 31
0.0
  0
LINE
  8
7
 10
258.0
 20
-159.5
 30
0.0
 11
151.0
 21
-159.5
 31
0.0
  0
POINT
  8
7
 10
261.0
 20
-244.5
 30
0.0
  0
POINT
  8
7
 10
149.000008
 20
-244.5
 30
0.0
  0
LINE
  8
1
 10
146.477837
 20
-150.5
 30
0.0
 11
129.062233
 21
-150.5
 31
0.0
  0
LINE
  8
1
 10
146.477837
 20
-222.5
 30
0.0
 11
129.062233
 21
-222.5
 31
0.0
  0
LINE
  8
1
 10
131.062233
 20
-154.5
 30
0.0
 11
131.062233
 21
-218.5
 31
0.0
  0
LINE
  8
0
 10
129.990436
 20
-154.5
 30
0.0
 11
131.062233
 21
-150.5
 31
0.0
  0
LINE
  8
0
 10
131.062233
 20
-150.5
 30
0.0
 11
132.134030
 21
-154.5
 31
0.0
  0
LINE
  8
0
 10
131.062233
 20
-150.5
 30
0.0
 11
131.062233
 21
-154.5
 31
0.0
  0
LINE
  8
0
 10
132.134030
 20
-218.5
 30
0.0
 11
131.062233
 21
-222.5
 31
0.0
  0
LINE
  8
0
 10
131.062233
 20
-222.5
 30
0.0
 11
129.990436
 21
-218.5
 31
0.0
  0
LINE
  8
0
 10
131.062233
 20
-222.5
 30
0.0
 11
131.062233
 21
-218.5
 31
0.0
  0
TEXT
  8
1
 62
     7
 10
129.062233
 20
-190.7
 30
0.0
 40
5.0
  7
CSTEXT
  1
72
 50
90.0
 72
     5
 11
129.062233
 21
-182.3
 31
0.0
  0
LINE
  8
1
 10
154.700004
 20
-226.5
 30
0.0
 11
136.336098
 21
-246.7
 31
0.0
  0
LINE
  8
1
 10
153.752112
 20
-228.3
 30
0.0
 11
154.700004
 21
-226.5
 31
0.0
  0
LINE
  8
1
 10
154.700004
 20
-226.5
 30
0.0
 11
152.958684
 21
-227.6
 31
0.0
  0
LINE
  8
1
 10
152.958684
 20
-227.6
 30
0.0
 11
153.752112
 21
-228.3
 31
0.0
  0
LINE
  8
1
 10
205.0
 20
-124.5
 30
0.0
 11
224.850704
 21
-112.1
 31
0.0
  0
LINE
  8
1
 10
206.412727
 20
-123.0
 30
0.0
 11
205.0
 21
-124.5
 31
0.0
  0
LINE
  8
1
 10
205.0
 20
-124.5
 30
0.0
 11
206.980325
 21
-123.9
 31
0.0
  0
LINE
  8
1
 10
206.980325
 20
-123.9
 30
0.0
 11
206.412727
 21
-123.0
 31
0.0
  0
LINE
  8
1
 10
258.450001
 20
-135.0
 30
0.0
 11
277.372729
 21
-118.1
 31
0.0
  0
LINE
  8
1
 10
259.585454
 20
-133.3
 30
0.0
 11
258.450001
 21
-135.0
 31
0.0
  0
LINE
  8
1
 10
258.450001
 20
-135.0
 30
0.0
 11
260.299061
 21
-134.1
 31
0.0
  0
LINE
  8
1
 10
260.299061
 20
-134.1
 30
0.0
 11
259.585454
 21
-133.3
 31
0.0
  0
LINE
  8
1
 10
149.000008
 20
-248.5
 30
0.0
 11
149.000008
 21
-282.6
 31
0.0
  0
LINE
  8
1
 10
261.0
 20
-248.5
 30
0.0
 11
261.0
 21
-282.6
 31
0.0
  0
LINE
  8
1
 10
153.000008
 20
-280.6
 30
0.0
 11
257.0
 21
-280.6
 31
0.0
  0
LINE
  8
0
 10
153.000008
 20
-281.7
 30
0.0
 11
149.000008
 21
-280.6
 31
0.0
  0
LINE
  8
0
 10
149.000008
 20
-280.6
 30
0.0
 11
153.000008
 21
-279.5
 31
0.0
  0
LINE
  8
0
 10
149.000008
 20
-280.6
 30
0.0
 11
153.000008
 21
-280.6
 31
0.0
  0
LINE
  8
0
 10
257.0
 20
-279.5
 30
0.0
 11
261.0
 21
-280.6
 31
0.0
  0
LINE
  8
0
 10
261.0
 20
-280.6
 30
0.0
 11
257.0
 21
-281.7
 31
0.0
  0
LINE
  8
0
 10
261.0
 20
-280.6
 30
0.0
 11
257.0
 21
-280.6
 31
0.0
  0
TEXT
  8
1
 62
     7
 10
198.775004
 20
-278.6
 30
0.0
 40
5.0
  7
CSTEXT
  1
112
 72
     5
 11
211.225004
 21
-278.6
 31
0.0
  0
LINE
  8
1
 10
157.000008
 20
-234.2
 30
0.0
 11
157.000008
 21
-273.6
 31
0.0
  0
LINE
  8
1
 10
149.000008
 20
-248.5
 30
0.0
 11
149.000008
 21
-273.6
 31
0.0
  0
LINE
  8
1
 10
161.000008
 20
-271.6
 30
0.0
 11
165.000008
 21
-271.6
 31
0.0
  0
LINE
  8
1
 10
145.000008
 20
-271.6
 30
0.0
 11
134.333341
 21
-271.6
 31
0.0
  0
LINE
  8
1
 10
157.000008
 20
-271.6
 30
0.0
 11
149.000008
 21
-271.6
 31
0.0
  0
LINE
  8
0
 10
161.000008
 20
-272.7
 30
0.0
 11
157.000008
 21
-271.6
 31
0.0
  0
LINE
  8
0
 10
157.000008
 20
-271.6
 30
0.0
 11
161.000008
 21
-270.5
 31
0.0
  0
LINE
  8
0
 10
157.000008
 20
-271.6
 30
0.0
 11
161.000008
 21
-271.6
 31
0.0
  0
LINE
  8
0
 10
145.000008
 20
-270.5
 30
0.0
 11
149.000008
 21
-271.6
 31
0.0
  0
LINE
  8
0
 10
149.000008
 20
-271.6
 30
0.0
 11
145.000008
 21
-272.7
 31
0.0
  0
LINE
  8
0
 10
149.000008
 20
-271.6
 30
0.0
 11
145.000008
 21
-271.6
 31
0.0
  0
TEXT
  8
1
 62
     7
 10
135.591675
 20
-269.6
 30
0.0
 40
5.0
  7
CSTEXT
  1
8
 72
     5
 11
139.741675
 21
-269.6
 31
0.0
  0
LINE
  8
1
 10
255.0
 20
-247.6
 30
0.0
 11
255.0
 21
-273.6
 31
0.0
  0
LINE
  8
1
 10
261.0
 20
-248.5
 30
0.0
 11
261.0
 21
-273.6
 31
0.0
  0
LINE
  8
1
 10
251.0
 20
-271.6
 30
0.0
 11
247.0
 21
-271.6
 31
0.0
  0
LINE
  8
1
 10
265.0
 20
-271.6
 30
0.0
 11
275.666666
 21
-271.6
 31
0.0
  0
LINE
  8
1
 10
255.0
 20
-271.6
 30
0.0
 11
261.0
 21
-271.6
 31
0.0
  0
LINE
  8
0
 10
251.0
 20
-270.5
 30
0.0
 11
255.0
 21
-271.6
 31
0.0
  0
LINE
  8
0
 10
255.0
 20
-271.6
 30
0.0
 11
251.0
 21
-272.7
 31
0.0
  0
LINE
  8
0
 10
255.0
 20
-271.6
 30
0.0
 11
251.0
 21
-271.6
 31
0.0
  0
LINE
  8
0
 10
265.0
 20
-272.7
 30
0.0
 11
261.0
 21
-271.6
 31
0.0
  0
LINE
  8
0
 10
261.0
 20
-271.6
 30
0.0
 11
265.0
 21
-270.5
 31
0.0
  0
LINE
  8
0
 10
261.0
 20
-271.6
 30
0.0
 11
265.0
 21
-271.6
 31
0.0
  0
TEXT
  8
1
 62
     7
 10
270.258333
 20
-269.6
 30
0.0
 40
5.0
  7
CSTEXT
  1
6
 72
     5
 11
274.408333
 21
-269.6
 31
0.0
  0
LINE
  8
1
 10
265.416666
 20
-166.5
 30
0.0
 11
280.806114
 21
-166.5
 31
0.0
  0
LINE
  8
1
 10
265.416666
 20
-206.5
 30
0.0
 11
280.806114
 21
-206.5
 31
0.0
  0
LINE
  8
1
 10
278.806114
 20
-170.5
 30
0.0
 11
278.806114
 21
-202.5
 31
0.0
  0
LINE
  8
0
 10
277.734317
 20
-170.5
 30
0.0
 11
278.806114
 21
-166.5
 31
0.0
  0
LINE
  8
0
 10
278.806114
 20
-166.5
 30
0.0
 11
279.877911
 21
-170.5
 31
0.0
  0
LINE
  8
0
 10
278.806114
 20
-166.5
 30
0.0
 11
278.806114
 21
-170.5
 31
0.0
  0
LINE
  8
0
 10
279.877911
 20
-202.5
 30
0.0
 11
278.806114
 21
-206.5
 31
0.0
  0
LINE
  8
0
 10
278.806114
 20
-206.5
 30
0.0
 11
277.734317
 21
-202.5
 31
0.0
  0
LINE
  8
0
 10
278.806114
 20
-206.5
 30
0.0
 11
278.806114
 21
-202.5
 31
0.0
  0
TEXT
  8
1
 62
     7
 10
276.806114
 20
-190.6
 30
0.0
 40
5.0
  7
CSTEXT
  1
40
 50
90.0
 72
     5
 11
276.806114
 21
-182.3
 31
0.0
  0
LINE
  8
1
 10
271.820758
 20
-137.0
 30
0.0
 11
289.806114
 21
-137.0
 31
0.0
  0
LINE
  8
1
 10
271.820758
 20
-236.0
 30
0.0
 11
289.806114
 21
-236.0
 31
0.0
  0
LINE
  8
1
 10
287.806114
 20
-141.0
 30
0.0
 11
287.806114
 21
-232.0
 31
0.0
  0
LINE
  8
0
 10
286.734317
 20
-141.0
 30
0.0
 11
287.806114
 21
-137.0
 31
0.0
  0
LINE
  8
0
 10
287.806114
 20
-137.0
 30
0.0
 11
288.877911
 21
-141.0
 31
0.0
  0
LINE
  8
0
 10
287.806114
 20
-137.0
 30
0.0
 11
287.806114
 21
-141.0
 31
0.0
  0
LINE
  8
0
 10
288.877911
 20
-232.0
 30
0.0
 11
287.806114
 21
-236.0
 31
0.0
  0
LINE
  8
0
 10
287.806114
 20
-236.0
 30
0.0
 11
286.734317
 21
-232.0
 31
0.0
  0
LINE
  8
0
 10
287.806114
 20
-236.0
 30
0.0
 11
287.806114
 21
-232.0
 31
0.0
  0
TEXT
  8
1
 62
     7
 10
285.806114
 20
-190.7
 30
0.0
 40
5.0
  7
CSTEXT
  1
99
 50
90.0
 72
     5
 11
285.806114
 21
-182.3
 31
0.0
  0
LINE
  8
1
 10
337.397798
 20
-127.5
 30
0.0
 11
313.306366
 21
-127.5
 31
0.0
  0
LINE
  8
1
 10
370.397794
 20
-122.5
 30
0.0
 11
313.306366
 21
-122.5
 31
0.0
  0
LINE
  8
1
 10
315.306366
 20
-131.5
 30
0.0
 11
315.306366
 21
-135.5
 31
0.0
  0
LINE
  8
1
 10
315.306366
 20
-118.5
 30
0.0
 11
315.306366
 21
-107.8
 31
0.0
  0
LINE
  8
1
 10
315.306366
 20
-127.5
 30
0.0
 11
315.306366
 21
-122.5
 31
0.0
  0
LINE
  8
0
 10
314.234569
 20
-131.5
 30
0.0
 11
315.306366
 21
-127.5
 31
0.0
  0
LINE
  8
0
 10
315.306366
 20
-127.5
 30
0.0
 11
316.378163
 21
-131.5
 31
0.0
  0
LINE
  8
0
 10
315.306366
 20
-127.5
 30
0.0
 11
315.306366
 21
-131.5
 31
0.0
  0
LINE
  8
0
 10
316.378163
 20
-118.5
 30
0.0
 11
315.306366
 21
-122.5
 31
0.0
  0
LINE
  8
0
 10
315.306366
 20
-122.5
 30
0.0
 11
314.234569
 21
-118.5
 31
0.0
  0
LINE
  8
0
 10
315.306366
 20
-122.5
 30
0.0
 11
315.306366
 21
-118.5
 31
0.0
  0
TEXT
  8
1
 62
     7
 10
313.306366
 20
-113.2
 30
0.0
 40
5.0
  7
CSTEXT
  1
5
 50
90.0
 41
0.987952
 72
     5
 11
313.306366
 21
-109.1
 31
0.0
  0
LINE
  8
1
 10
337.397798
 20
-127.5
 30
0.0
 11
313.306366
 21
-127.5
 31
0.0
  0
LINE
  8
1
 10
337.397798
 20
-245.5
 30
0.0
 11
313.306366
 21
-245.5
 31
0.0
  0
LINE
  8
1
 10
315.306366
 20
-131.5
 30
0.0
 11
315.306366
 21
-241.5
 31
0.0
  0
LINE
  8
0
 10
314.234569
 20
-131.5
 30
0.0
 11
315.306366
 21
-127.5
 31
0.0
  0
LINE
  8
0
 10
315.306366
 20
-127.5
 30
0.0
 11
316.378163
 21
-131.5
 31
0.0
  0
LINE
  8
0
 10
315.306366
 20
-127.5
 30
0.0
 11
315.306366
 21
-131.5
 31
0.0
  0
LINE
  8
0
 10
316.378163
 20
-241.5
 30
0.0
 11
315.306366
 21
-245.5
 31
0.0
  0
LINE
  8
0
 10
315.306366
 20
-245.5
 30
0.0
 11
314.234569
 21
-241.5
 31
0.0
  0
LINE
  8
0
 10
315.306366
 20
-245.5
 30
0.0
 11
315.306366
 21
-241.5
 31
0.0
  0
TEXT
  8
1
 62
     7
 10
313.306366
 20
-192.7
 30
0.0
 40
5.0
  7
CSTEXT
  1
118
 50
90.0
 41
0.995984
 72
     5
 11
313.306366
 21
-180.3
 31
0.0
  0
LINE
  8
1
 10
337.397798
 20
-245.5
 30
0.0
 11
313.306366
 21
-245.5
 31
0.0
  0
LINE
  8
1
 10
350.897796
 20
-248.0
 30
0.0
 11
313.306366
 21
-248.0
 31
0.0
  0
LINE
  8
1
 10
315.306366
 20
-241.5
 30
0.0
 11
315.306366
 21
-237.5
 31
0.0
  0
LINE
  8
1
 10
315.306366
 20
-252.0
 30
0.0
 11
315.306366
 21
-269.3
 31
0.0
  0
LINE
  8
1
 10
315.306366
 20
-245.5
 30
0.0
 11
315.306366
 21
-248.0
 31
0.0
  0
LINE
  8
0
 10
316.378163
 20
-241.5
 30
0.0
 11
315.306366
 21
-245.5
 31
0.0
  0
LINE
  8
0
 10
315.306366
 20
-245.5
 30
0.0
 11
314.234570
 21
-241.5
 31
0.0
  0
LINE
  8
0
 10
315.306366
 20
-245.5
 30
0.0
 11
315.306366
 21
-241.5
 31
0.0
  0
LINE
  8
0
 10
314.234570
 20
-252.0
 30
0.0
 11
315.306366
 21
-248.0
 31
0.0
  0
LINE
  8
0
 10
315.306366
 20
-248.0
 30
0.0
 11
316.378163
 21
-252.0
 31
0.0
  0
LINE
  8
0
 10
315.306366
 20
-248.0
 30
0.0
 11
315.306366
 21
-252.0
 31
0.0
  0
TEXT
  8
1
 62
     7
 10
313.306366
 20
-268.9
 30
0.0
 40
5.0
  7
CSTEXT
  1
2.5
 50
90.0
 72
     5
 11
313.306366
 21
-256.4
 31
0.0
  0
LINE
  8
1
 10
329.089058
 20
-217.7
 30
0.0
 11
329.089058
 21
-282.6
 31
0.0
  0
LINE
  8
1
 10
429.889056
 20
-250.5
 30
0.0
 11
429.889056
 21
-282.6
 31
0.0
  0
LINE
  8
1
 10
333.089058
 20
-280.6
 30
0.0
 11
425.889056
 21
-280.6
 31
0.0
  0
LINE
  8
0
 10
333.089058
 20
-281.7
 30
0.0
 11
329.089058
 21
-280.6
 31
0.0
  0
LINE
  8
0
 10
329.089058
 20
-280.6
 30
0.0
 11
333.089058
 21
-279.5
 31
0.0
  0
LINE
  8
0
 10
329.089058
 20
-280.6
 30
0.0
 11
333.089058
 21
-280.6
 31
0.0
  0
LINE
  8
0
 10
425.889056
 20
-279.5
 30
0.0
 11
429.889056
 21
-280.6
 31
0.0
  0
LINE
  8
0
 10
429.889056
 20
-280.6
 30
0.0
 11
425.889056
 21
-281.7
 31
0.0
  0
LINE
  8
0
 10
429.889056
 20
-280.6
 30
0.0
 11
425.889056
 21
-280.6
 31
0.0
  0
TEXT
  8
1
 62
     7
 10
373.264057
 20
-278.6
 30
0.0
 40
5.0
  7
CSTEXT
  1
102
 72
     5
 11
385.714057
 21
-278.6
 31
0.0
  0
LINE
  8
1
 10
346.589058
 20
-248.5
 30
0.0
 11
346.589058
 21
-273.6
 31
0.0
  0
LINE
  8
1
 10
429.889066
 20
-250.5
 30
0.0
 11
429.889066
 21
-273.6
 31
0.0
  0
LINE
  8
1
 10
350.589058
 20
-271.6
 30
0.0
 11
425.889066
 21
-271.6
 31
0.0
  0
LINE
  8
0
 10
350.589058
 20
-272.7
 30
0.0
 11
346.589058
 21
-271.6
 31
0.0
  0
LINE
  8
0
 10
346.589058
 20
-271.6
 30
0.0
 11
350.589058
 21
-270.5
 31
0.0
  0
LINE
  8
0
 10
346.589058
 20
-271.6
 30
0.0
 11
350.589058
 21
-271.6
 31
0.0
  0
LINE
  8
0
 10
425.889066
 20
-270.5
 30
0.0
 11
429.889066
 21
-271.6
 31
0.0
  0
LINE
  8
0
 10
429.889066
 20
-271.6
 30
0.0
 11
425.889066
 21
-272.7
 31
0.0
  0
LINE
  8
0
 10
429.889066
 20
-271.6
 30
0.0
 11
425.889066
 21
-271.6
 31
0.0
  0
TEXT
  8
1
 62
     7
 10
384.089062
 20
-269.6
 30
0.0
 40
5.0
  7
CSTEXT
  1
84
 72
     5
 11
392.389062
 21
-269.6
 31
0.0
  0
LINE
  8
1
 10
358.289050
 20
-245.8
 30
0.0
 11
358.289050
 21
-264.6
 31
0.0
  0
LINE
  8
1
 10
429.889066
 20
-250.5
 30
0.0
 11
429.889066
 21
-264.6
 31
0.0
  0
LINE
  8
1
 10
362.289050
 20
-262.6
 30
0.0
 11
425.889066
 21
-262.6
 31
0.0
  0
LINE
  8
0
 10
362.289050
 20
-263.7
 30
0.0
 11
358.289050
 21
-262.6
 31
0.0
  0
LINE
  8
0
 10
358.289050
 20
-262.6
 30
0.0
 11
362.289050
 21
-261.5
 31
0.0
  0
LINE
  8
0
 10
358.289050
 20
-262.6
 30
0.0
 11
362.289050
 21
-262.6
 31
0.0
  0
LINE
  8
0
 10
425.889066
 20
-261.5
 30
0.0
 11
429.889066
 21
-262.6
 31
0.0
  0
LINE
  8
0
 10
429.889066
 20
-262.6
 30
0.0
 11
425.889066
 21
-263.7
 31
0.0
  0
LINE
  8
0
 10
429.889066
 20
-262.6
 30
0.0
 11
425.889066
 21
-262.6
 31
0.0
  0
TEXT
  8
1
 62
     7
 10
382.439058
 20
-260.6
 30
0.0
 40
5.0
  7
CSTEXT
  1
二次側71
 72
     5
 11
405.739058
 21
-260.6
 31
0.0
  0
TEXT
  8
1
 62
     7
 10
382.439058
 20
-254.4
 30
0.0
 40
5.0
  7
CSTEXT
  1
一次側78
 72
     5
 11
405.739058
 21
-254.4
 31
0.0
  0
LINE
  8
1
 10
427.589062
 20
-122.5
 30
0.0
 11
427.589062
 21
-110.8
 31
0.0
  0
LINE
  8
1
 10
429.889065
 20
-122.5
 30
0.0
 11
429.889065
 21
-110.8
 31
0.0
  0
LINE
  8
1
 10
423.589062
 20
-112.8
 30
0.0
 11
419.589062
 21
-112.8
 31
0.0
  0
LINE
  8
1
 10
433.889065
 20
-112.8
 30
0.0
 11
451.222399
 21
-112.8
 31
0.0
  0
LINE
  8
1
 10
427.589062
 20
-112.8
 30
0.0
 11
429.889065
 21
-112.8
 31
0.0
  0
LINE
  8
0
 10
423.589062
 20
-111.7
 30
0.0
 11
427.589062
 21
-112.8
 31
0.0
  0
LINE
  8
0
 10
427.589062
 20
-112.8
 30
0.0
 11
423.589062
 21
-113.9
 31
0.0
  0
LINE
  8
0
 10
427.589062
 20
-112.8
 30
0.0
 11
423.589062
 21
-112.8
 31
0.0
  0
LINE
  8
0
 10
433.889065
 20
-113.9
 30
0.0
 11
429.889065
 21
-112.8
 31
0.0
  0
LINE
  8
0
 10
429.889065
 20
-112.8
 30
0.0
 11
433.889065
 21
-111.7
 31
0.0
  0
LINE
  8
0
 10
429.889065
 20
-112.8
 30
0.0
 11
433.889065
 21
-112.8
 31
0.0
  0
TEXT
  8
1
 62
     7
 10
438.330732
 20
-110.8
 30
0.0
 40
5.0
  7
CSTEXT
  1
2.3
 72
     5
 11
450.780732
 21
-110.8
 31
0.0
  0
LINE
  8
1
 10
438.226553
 20
-126.5
 30
0.0
 11
454.142996
 21
-126.5
 31
0.0
  0
LINE
  8
1
 10
438.226553
 20
-246.5
 30
0.0
 11
454.142996
 21
-246.5
 31
0.0
  0
LINE
  8
1
 10
452.142996
 20
-130.5
 30
0.0
 11
452.142996
 21
-242.5
 31
0.0
  0
LINE
  8
0
 10
451.071199
 20
-130.5
 30
0.0
 11
452.142996
 21
-126.5
 31
0.0
  0
LINE
  8
0
 10
452.142996
 20
-126.5
 30
0.0
 11
453.214793
 21
-130.5
 31
0.0
  0
LINE
  8
0
 10
452.142996
 20
-126.5
 30
0.0
 11
452.142996
 21
-130.5
 31
0.0
  0
LINE
  8
0
 10
453.214793
 20
-242.5
 30
0.0
 11
452.142996
 21
-246.5
 31
0.0
  0
LINE
  8
0
 10
452.142996
 20
-246.5
 30
0.0
 11
451.071199
 21
-242.5
 31
0.0
  0
LINE
  8
0
 10
452.142996
 20
-246.5
 30
0.0
 11
452.142996
 21
-242.5
 31
0.0
  0
TEXT
  8
1
 62
     7
 10
450.142996
 20
-192.7
 30
0.0
 40
5.0
  7
CSTEXT
  1
120
 50
90.0
 41
0.995984
 72
     5
 11
450.142996
 21
-180.3
 31
0.0
  0
TEXT
  8
3
 10
119.196098
 20
-256.7
 30
0.0
 40
5.0
  7
CSTEXT
  1
M5ねじ
 41
0.800000
 72
     5
 11
133.836098
 21
-256.7
 31
0.0
  0
TEXT
  8
3
 10
117.836098
 20
-249.2
 30
0.0
 40
5.0
  7
CSTEXT
  1
一次端子
 41
0.800000
 72
     5
 11
133.836098
 21
-249.2
 31
0.0
  0
TEXT
  8
3
 10
227.350704
 20
-114.6
 30
0.0
 40
5.0
  7
CSTEXT
  1
検定封印穴φ２
 41
0.800000
 72
     5
 11
255.350704
 21
-114.6
 31
0.0
  0
TEXT
  8
3
 10
279.872729
 20
-120.6
 30
0.0
 40
5.0
  7
CSTEXT
  1
M5ねじ
 41
0.800000
 72
     5
 11
294.512729
 21
-120.6
 31
0.0
  0
TEXT
  8
3
 10
279.872729
 20
-113.1
 30
0.0
 40
5.0
  7
CSTEXT
  1
二次端子
 41
0.800000
 72
     5
 11
295.872729
 21
-113.1
 31
0.0
  0
LINE
  8
6
 10
205.0
 20
-457.9
 30
0.0
 11
205.0
 21
-316.0
 31
0.0
  0
LINE
  8
6
 10
269.982577
 20
-386.5
 30
0.0
 11
138.277636
 21
-386.5
 31
0.0
  0
LINE
  8
6
 10
147.500000
 20
-436.5
 30
0.0
 11
162.500000
 21
-436.5
 31
0.0
  0
LINE
  8
6
 10
155.0
 20
-429.0
 30
0.0
 11
155.0
 21
-444.0
 31
0.0
  0
LINE
  8
6
 10
262.500000
 20
-436.5
 30
0.0
 11
247.500000
 21
-436.5
 31
0.0
  0
LINE
  8
6
 10
255.0
 20
-429.0
 30
0.0
 11
255.0
 21
-444.0
 31
0.0
  0
LINE
  8
6
 10
147.500000
 20
-336.5
 30
0.0
 11
162.500000
 21
-336.5
 31
0.0
  0
LINE
  8
6
 10
155.0
 20
-344.0
 30
0.0
 11
155.0
 21
-329.0
 31
0.0
  0
LINE
  8
6
 10
262.500000
 20
-336.5
 30
0.0
 11
247.500000
 21
-336.5
 31
0.0
  0
LINE
  8
6
 10
255.0
 20
-344.0
 30
0.0
 11
255.0
 21
-329.0
 31
0.0
  0
ARC
  8
7
 10
255.0
 20
-336.5
 30
0.0
 40
3.500000
 50
0.0
 51
180.0
  0
ARC
  8
7
 10
255.0
 20
-336.5
 30
0.0
 40
3.500000
 50
180.0
 51
360.0
  0
ARC
  8
7
 10
155.0
 20
-336.5
 30
0.0
 40
3.500000
 50
0.0
 51
180.0
  0
ARC
  8
7
 10
155.0
 20
-336.5
 30
0.0
 40
3.500000
 50
180.0
 51
360.0
  0
ARC
  8
7
 10
255.0
 20
-436.5
 30
0.0
 40
3.500000
 50
0.0
 51
180.0
  0
ARC
  8
7
 10
255.0
 20
-436.5
 30
0.0
 40
3.500000
 50
180.0
 51
360.0
  0
ARC
  8
7
 10
155.0
 20
-436.5
 30
0.0
 40
3.500000
 50
0.0
 51
180.0
  0
ARC
  8
7
 10
155.0
 20
-436.5
 30
0.0
 40
3.500000
 50
180.0
 51
360.0
  0
POINT
  8
7
 10
255.0
 20
-444.0
 30
0.0
  0
POINT
  8
7
 10
154.999992
 20
-444.0
 30
0.0
  0
LINE
  8
1
 10
154.999992
 20
-448.0
 30
0.0
 11
154.999992
 21
-472.0
 31
0.0
  0
LINE
  8
1
 10
255.0
 20
-448.0
 30
0.0
 11
255.0
 21
-472.0
 31
0.0
  0
LINE
  8
1
 10
158.999992
 20
-470.0
 30
0.0
 11
251.0
 21
-470.0
 31
0.0
  0
LINE
  8
0
 10
158.999992
 20
-471.1
 30
0.0
 11
154.999992
 21
-470.0
 31
0.0
  0
LINE
  8
0
 10
154.999992
 20
-470.0
 30
0.0
 11
158.999992
 21
-468.9
 31
0.0
  0
LINE
  8
0
 10
154.999992
 20
-470.0
 30
0.0
 11
158.999992
 21
-470.0
 31
0.0
  0
LINE
  8
0
 10
251.0
 20
-468.9
 30
0.0
 11
255.0
 21
-470.0
 31
0.0
  0
LINE
  8
0
 10
255.0
 20
-470.0
 30
0.0
 11
251.0
 21
-471.1
 31
0.0
  0
LINE
  8
0
 10
255.0
 20
-470.0
 30
0.0
 11
251.0
 21
-470.0
 31
0.0
  0
TEXT
  8
1
 62
     7
 10
198.774996
 20
-468.0
 30
0.0
 40
5.0
  7
CSTEXT
  1
100
 72
     5
 11
211.224996
 21
-468.0
 31
0.0
  0
LINE
  8
1
 10
265.500000
 20
-336.5
 30
0.0
 11
300.600616
 21
-336.5
 31
0.0
  0
LINE
  8
1
 10
265.500000
 20
-436.5
 30
0.0
 11
300.600616
 21
-436.5
 31
0.0
  0
LINE
  8
1
 10
298.600616
 20
-340.5
 30
0.0
 11
298.600616
 21
-432.5
 31
0.0
  0
LINE
  8
0
 10
297.528819
 20
-340.5
 30
0.0
 11
298.600616
 21
-336.5
 31
0.0
  0
LINE
  8
0
 10
298.600616
 20
-336.5
 30
0.0
 11
299.672413
 21
-340.5
 31
0.0
  0
LINE
  8
0
 10
298.600616
 20
-336.5
 30
0.0
 11
298.600616
 21
-340.5
 31
0.0
  0
LINE
  8
0
 10
299.672413
 20
-432.5
 30
0.0
 11
298.600616
 21
-436.5
 31
0.0
  0
LINE
  8
0
 10
298.600616
 20
-436.5
 30
0.0
 11
297.528819
 21
-432.5
 31
0.0
  0
LINE
  8
0
 10
298.600616
 20
-436.5
 30
0.0
 11
298.600616
 21
-432.5
 31
0.0
  0
TEXT
  8
1
 62
     7
 10
296.600616
 20
-392.7
 30
0.0
 40
5.0
  7
CSTEXT
  1
100
 50
90.0
 41
0.995984
 72
     5
 11
296.600616
 21
-380.3
 31
0.0
  0
LINE
  8
1
 10
157.405418
 20
-434.0
 30
0.0
 11
164.036247
 21
-420.3
 31
0.0
  0
LINE
  8
1
 10
157.794835
 20
-431.9
 30
0.0
 11
157.405418
 21
-434.0
 31
0.0
  0
LINE
  8
1
 10
157.405418
 20
-434.0
 30
0.0
 11
158.759467
 21
-432.4
 31
0.0
  0
LINE
  8
1
 10
158.759467
 20
-432.4
 30
0.0
 11
157.794835
 21
-431.9
 31
0.0
  0
TEXT
  8
1
 62
     7
 10
177.499996
 20
-478.0
 30
0.0
 40
5.0
  7
CSTEXT
  1
（取付ねじ穴開寸法図）
 72
     5
 11
232.499996
 21
-478.0
 31
0.0
  0
TEXT
  8
3
 10
157.056247
 20
-417.8
 30
0.0
 40
5.0
  7
CSTEXT
  1
4-φ7
 41
0.800000
 72
     5
 11
171.016247
 21
-417.8
 31
0.0
  0
TEXT
  8
3
 10
620.0
 20
-94.0
 30
0.0
 40
10.0
  7
CSTEXT
  1
外形図
 41
0.800000
 72
     5
 11
644.0
 21
-94.0
 31
0.0
  0
TEXT
  8
3
 10
197.657934
 20
-213.1
 30
0.0
 40
5.0
  7
CSTEXT
  1
FUSE
 50
90.0
 41
0.795181
 72
     5
 11
197.657934
 21
-199.9
 31
0.0
  0
TEXT
  8
3
 10
197.657934
 20
-173.1
 30
0.0
 40
5.0
  7
CSTEXT
  1
FUSE
 50
90.0
 41
0.795181
 72
     5
 11
197.657934
 21
-159.9
 31
0.0
  0
POLYLINE
  8
4
 66
     1
 70
     0
  0
VERTEX
  8
4
 10
0.0
 20
-1208.0
 30
0.0
  0
VERTEX
  8
4
 10
0.0
 20
-614.0
 30
0.0
  0
VERTEX
  8
4
 10
841.0
 20
-614.0
 30
0.0
  0
VERTEX
  8
4
 10
841.0
 20
-1208.0
 30
0.0
  0
VERTEX
  8
4
 10
0.0
 20
-1208.0
 30
0.0
  0
SEQEND
  8
4
  0
TEXT
  8
4
 10
740.632000
 20
-1185.0
 30
0.0
 40
14.0
  7
CSTEXT
  1
A1 S=1/1
 41
0.800000
 72
     5
 11
815.0
 21
-1185.0
 31
0.0
  0
TEXT
  8
3
 10
12.500000
 20
-1194.8
 30
0.0
 40
3.500000
  7
CSTEXT
  1
A (3314) V-27
 41
0.800000
 72
     5
 11
42.712000
 21
-1194.8
 31
0.0
  0
POLYLINE
  8
4
 66
     1
 70
     0
  0
VERTEX
  8
4
 10
8.0
 20
-1198.5
 30
0.0
  0
VERTEX
  8
4
 10
8.0
 20
-623.5
 30
0.0
  0
VERTEX
  8
4
 10
833.0
 20
-623.5
 30
0.0
  0
VERTEX
  8
4
 10
833.0
 20
-1198.5
 30
0.0
  0
VERTEX
  8
4
 10
8.0
 20
-1198.5
 30
0.0
  0
SEQEND
  8
4
  0
POLYLINE
  8
5
 66
     1
 70
     0
  0
VERTEX
  8
5
 10
20.0
 20
-633.0
 30
0.0
  0
VERTEX
  8
5
 10
820.0
 20
-633.0
 30
0.0
  0
VERTEX
  8
5
 10
820.0
 20
-1188.0
 30
0.0
  0
VERTEX
  8
5
 10
20.0
 20
-1188.0
 30
0.0
  0
VERTEX
  8
5
 10
20.0
 20
-633.0
 30
0.0
  0
SEQEND
  8
5
  0
TEXT
  8
3
 10
620.0
 20
-683.0
 30
0.0
 40
10.0
  7
CSTEXT
  1
VT-50HF 6600/110V
 41
0.800000
 72
     5
 11
732.880000
 21
-683.0
 31
0.0
  0
LINE
  8
8
 10
620.0
 20
-1013.0
 30
0.0
 11
790.0
 21
-1013.0
 31
0.0
  0
LINE
  8
8
 10
790.0
 20
-1013.0
 30
0.0
 11
790.0
 21
-1163.0
 31
0.0
  0
LINE
  8
8
 10
620.0
 20
-1163.0
 30
0.0
 11
620.0
 21
-1013.0
 31
0.0
  0
LINE
  8
8
 10
620.0
 20
-1028.0
 30
0.0
 11
790.0
 21
-1028.0
 31
0.0
  0
TEXT
  8
3
 10
625.0
 20
-1019.3
 30
0.0
 40
5.0
  7
CSTEXT
  1
形名
 41
0.800000
 72
     5
 11
633.0
 21
-1019.3
 31
0.0
  0
TEXT
  8
3
 10
625.0
 20
-1026.8
 30
0.0
 40
5.0
  7
CSTEXT
  1
Type
 41
0.800000
 72
     5
 11
638.280000
 21
-1026.8
 31
0.0
  0
LINE
  8
8
 10
620.0
 20
-1043.0
 30
0.0
 11
790.0
 21
-1043.0
 31
0.0
  0
TEXT
  8
3
 10
625.0
 20
-1034.3
 30
0.0
 40
5.0
  7
CSTEXT
  1
変圧比(V)
 41
0.800000
 72
     5
 11
646.960000
 21
-1034.3
 31
0.0
  0
TEXT
  8
3
 10
625.0
 20
-1041.8
 30
0.0
 40
5.0
  7
CSTEXT
  1
Transformation ratio
 41
0.800000
 72
     5
 11
691.400000
 21
-1041.8
 31
0.0
  0
LINE
  8
8
 10
620.0
 20
-1058.0
 30
0.0
 11
790.0
 21
-1058.0
 31
0.0
  0
TEXT
  8
3
 10
625.0
 20
-1049.3
 30
0.0
 40
5.0
  7
CSTEXT
  1
定格負担(VA)
 41
0.800000
 72
     5
 11
654.280000
 21
-1049.3
 31
0.0
  0
TEXT
  8
3
 10
625.0
 20
-1056.8
 30
0.0
 40
5.0
  7
CSTEXT
  1
Rated burden
 41
0.800000
 72
     5
 11
664.840000
 21
-1056.8
 31
0.0
  0
LINE
  8
8
 10
620.0
 20
-1073.0
 30
0.0
 11
790.0
 21
-1073.0
 31
0.0
  0
TEXT
  8
3
 10
625.0
 20
-1064.3
 30
0.0
 40
5.0
  7
CSTEXT
  1
確度階級
 41
0.800000
 72
     5
 11
641.0
 21
-1064.3
 31
0.0
  0
TEXT
  8
3
 10
625.0
 20
-1071.8
 30
0.0
 40
5.0
  7
CSTEXT
  1
Accuracy class
 41
0.800000
 72
     5
 11
671.480000
 21
-1071.8
 31
0.0
  0
LINE
  8
8
 10
620.0
 20
-1088.0
 30
0.0
 11
790.0
 21
-1088.0
 31
0.0
  0
TEXT
  8
3
 10
625.0
 20
-1079.3
 30
0.0
 40
5.0
  7
CSTEXT
  1
周波数(Hz)
 41
0.800000
 72
     5
 11
650.280000
 21
-1079.3
 31
0.0
  0
TEXT
  8
3
 10
625.0
 20
-1086.8
 30
0.0
 40
5.0
  7
CSTEXT
  1
Frequency
 41
0.800000
 72
     5
 11
654.880000
 21
-1086.8
 31
0.0
  0
LINE
  8
8
 10
620.0
 20
-1103.0
 30
0.0
 11
790.0
 21
-1103.0
 31
0.0
  0
TEXT
  8
3
 10
625.0
 20
-1094.3
 30
0.0
 40
5.0
  7
CSTEXT
  1
耐電圧(kV)
 41
0.800000
 72
     5
 11
650.280000
 21
-1094.3
 31
0.0
  0
TEXT
  8
3
 10
625.0
 20
-1101.8
 30
0.0
 40
5.0
  7
CSTEXT
  1
Withstand voltage
 41
0.800000
 72
     5
 11
681.440000
 21
-1101.8
 31
0.0
  0
LINE
  8
8
 10
620.0
 20
-1133.0
 30
0.0
 11
790.0
 21
-1133.0
 31
0.0
  0
LINE
  8
8
 10
620.0
 20
-1148.0
 30
0.0
 11
790.0
 21
-1148.0
 31
0.0
  0
TEXT
  8
3
 10
625.0
 20
-1124.3
 30
0.0
 40
5.0
  7
CSTEXT
  1
適用規格
 41
0.800000
 72
     5
 11
641.0
 21
-1124.3
 31
0.0
  0
TEXT
  8
3
 10
625.0
 20
-1131.8
 30
0.0
 40
5.0
  7
CSTEXT
  1
Standard
 41
0.800000
 72
     5
 11
651.560000
 21
-1131.8
 31
0.0
  0
LINE
  8
8
 10
620.0
 20
-1163.0
 30
0.0
 11
790.0
 21
-1163.0
 31
0.0
  0
TEXT
  8
3
 10
625.0
 20
-1154.3
 30
0.0
 40
5.0
  7
CSTEXT
  1
その他
 41
0.800000
 72
     5
 11
637.0
 21
-1154.3
 31
0.0
  0
TEXT
  8
3
 10
625.0
 20
-1161.8
 30
0.0
 40
5.0
  7
CSTEXT
  1
Miscellaneous
 41
0.800000
 72
     5
 11
668.160000
 21
-1161.8
 31
0.0
  0
LINE
  8
8
 10
740.0
 20
-1013.0
 30
0.0
 11
740.0
 21
-1163.0
 31
0.0
  0
TEXT
  8
3
 10
753.380000
 20
-1023.0
 30
0.0
 40
5.0
  7
CSTEXT
  1
VT-50HF
 41
0.800000
 72
     5
 11
776.620000
 21
-1023.0
 31
0.0
  0
TEXT
  8
3
 10
751.720000
 20
-1038.0
 30
0.0
 40
5.0
  7
CSTEXT
  1
6600/110
 41
0.800000
 72
     5
 11
778.280000
 21
-1038.0
 31
0.0
  0
TEXT
  8
3
 10
761.680000
 20
-1053.0
 30
0.0
 40
5.0
  7
CSTEXT
  1
50
 41
0.800000
 72
     5
 11
768.320000
 21
-1053.0
 31
0.0
  0
TEXT
  8
3
 10
754.700000
 20
-1068.0
 30
0.0
 40
5.0
  7
CSTEXT
  1
1.0・1P
 41
0.800000
 72
     5
 11
775.300000
 21
-1068.0
 31
0.0
  0
TEXT
  8
3
 10
752.360000
 20
-1083.0
 30
0.0
 40
5.0
  7
CSTEXT
  1
50または60
 41
0.800000
 72
     5
 11
777.640000
 21
-1083.0
 31
0.0
  0
TEXT
  8
3
 10
756.700000
 20
-1098.0
 30
0.0
 40
5.0
  7
CSTEXT
  1
22/60
 41
0.800000
 72
     5
 11
773.300000
 21
-1098.0
 31
0.0
  0
TEXT
  8
3
 10
745.080000
 20
-1124.3
 30
0.0
 40
5.0
  7
CSTEXT
  1
JIS C 1731-2
 41
0.800000
 72
     5
 11
784.920000
 21
-1124.3
 31
0.0
  0
TEXT
  8
3
 10
625.0
 20
-1010.5
 30
0.0
 40
5.0
  7
CSTEXT
  1
Item to be specified in specifications.
 41
0.800000
 72
     5
 11
754.480000
 21
-1010.5
 31
0.0
  0
TEXT
  8
3
 10
625.0
 20
-1003.0
 30
0.0
 40
5.0
  7
CSTEXT
  1
仕様ご指定事項
 41
0.800000
 72
     5
 11
653.0
 21
-1003.0
 31
0.0
  0
LINE
  8
8
 10
620.0
 20
-1118.0
 30
0.0
 11
790.0
 21
-1118.0
 31
0.0
  0
TEXT
  8
3
 10
625.0
 20
-1109.3
 30
0.0
 40
5.0
  7
CSTEXT
  1
制限負荷
 41
0.800000
 72
     5
 11
641.0
 21
-1109.3
 31
0.0
  0
TEXT
  8
3
 10
625.0
 20
-1116.8
 30
0.0
 40
5.0
  7
CSTEXT
  1
Limit output
 41
0.800000
 72
     5
 11
664.840000
 21
-1116.8
 31
0.0
  0
TEXT
  8
3
 10
760.020000
 20
-1113.0
 30
0.0
 40
5.0
  7
CSTEXT
  1
200
 41
0.800000
 72
     5
 11
769.980000
 21
-1113.0
 31
0.0
  0
TEXT
  8
3
 10
751.720000
 20
-1131.8
 30
0.0
 40
5.0
  7
CSTEXT
  1
JEC-1201
 41
0.800000
 72
     5
 11
778.280000
 21
-1131.8
 31
0.0
  0
TEXT
  8
3
 10
625.0
 20
-1139.3
 30
0.0
 40
5.0
  7
CSTEXT
  1
質量(kg)
 41
0.800000
 72
     5
 11
646.280000
 21
-1139.3
 31
0.0
  0
TEXT
  8
3
 10
625.0
 20
-1146.8
 30
0.0
 40
5.0
  7
CSTEXT
  1
Mass
 41
0.800000
 72
     5
 11
638.280000
 21
-1146.8
 31
0.0
  0
TEXT
  8
3
 10
760.020000
 20
-1143.0
 30
0.0
 40
5.0
  7
CSTEXT
  1
8.5
 41
0.800000
 72
     5
 11
769.980000
 21
-1143.0
 31
0.0
  0
LINE
  8
6
 10
195.0
 20
-937.9
 30
0.0
 11
195.0
 21
-753.6
 31
0.0
  0
POINT
  8
7
 10
126.500003
 20
-885.3
 30
0.0
  0
LINE
  8
6
 10
180.0
 20
-896.0
 30
0.0
 11
180.0
 21
-911.0
 31
0.0
  0
LINE
  8
6
 10
149.650003
 20
-933.4
 30
0.0
 11
149.650003
 21
-924.6
 31
0.0
  0
LINE
  8
6
 10
187.500000
 20
-903.5
 30
0.0
 11
172.500003
 21
-903.5
 31
0.0
  0
POINT
  8
7
 10
172.897533
 20
-886.4
 30
0.0
  0
POINT
  8
7
 10
172.897533
 20
-886.4
 30
0.0
  0
POINT
  8
7
 10
180.0
 20
-903.5
 30
0.0
  0
LINE
  8
6
 10
150.000003
 20
-766.0
 30
0.0
 11
150.000003
 21
-799.4
 31
0.0
  0
POINT
  8
7
 10
150.000003
 20
-788.7
 30
0.0
  0
TEXT
  8
3
 10
137.664923
 20
-754.9
 30
0.0
 40
5.0
  7
CSTEXT
  1
Ｕ
 41
0.800000
 72
     5
 11
141.664923
 21
-754.9
 31
0.0
  0
LINE
  8
6
 10
210.0
 20
-896.0
 30
0.0
 11
210.0
 21
-911.0
 31
0.0
  0
LINE
  8
6
 10
240.350000
 20
-933.4
 30
0.0
 11
240.350000
 21
-924.6
 31
0.0
  0
LINE
  8
6
 10
217.500000
 20
-903.5
 30
0.0
 11
202.500000
 21
-903.5
 31
0.0
  0
POINT
  8
7
 10
210.0
 20
-903.5
 30
0.0
  0
POINT
  8
7
 10
217.102468
 20
-826.1
 30
0.0
  0
POINT
  8
7
 10
217.102468
 20
-826.1
 30
0.0
  0
LINE
  8
7
 10
261.489374
 20
-894.1
 30
0.0
 11
260.270617
 21
-890.5
 31
0.0
  0
LINE
  8
6
 10
240.0
 20
-766.0
 30
0.0
 11
240.0
 21
-799.4
 31
0.0
  0
POINT
  8
7
 10
240.0
 20
-788.7
 30
0.0
  0
TEXT
  8
3
 10
246.235078
 20
-754.9
 30
0.0
 40
5.0
  7
CSTEXT
  1
Ｖ
 41
0.800000
 72
     5
 11
250.235078
 21
-754.9
 31
0.0
  0
LINE
  8
6
 10
492.770243
 20
-979.3
 30
0.0
 11
492.770243
 21
-1007.3
 31
0.0
  0
LINE
  8
6
 10
398.770243
 20
-979.3
 30
0.0
 11
398.770243
 21
-1007.3
 31
0.0
  0
LINE
  8
6
 10
515.770243
 20
-923.0
 30
0.0
 11
515.770243
 21
-1002.3
 31
0.0
  0
LINE
  8
6
 10
375.770243
 20
-923.0
 30
0.0
 11
375.770243
 21
-1002.3
 31
0.0
  0
LINE
  8
6
 10
412.770243
 20
-993.3
 30
0.0
 11
368.438072
 21
-993.3
 31
0.0
  0
LINE
  8
6
 10
522.952393
 20
-993.3
 30
0.0
 11
478.770243
 21
-993.3
 31
0.0
  0
LINE
  8
6
 10
445.770243
 20
-737.9
 30
0.0
 11
445.770243
 21
-933.1
 31
0.0
  0
LINE
  8
6
 10
401.020243
 20
-915.3
 30
0.0
 11
391.520243
 21
-915.3
 31
0.0
  0
LINE
  8
6
 10
396.270243
 20
-910.5
 30
0.0
 11
396.270243
 21
-920.0
 31
0.0
  0
LINE
  8
6
 10
396.270243
 20
-903.5
 30
0.0
 11
385.504963
 21
-903.5
 31
0.0
  0
POINT
  8
7
 10
394.770243
 20
-903.5
 30
0.0
  0
POINT
  8
7
 10
394.770243
 20
-903.5
 30
0.0
  0
POINT
  8
7
 10
394.770243
 20
-903.5
 30
0.0
  0
POINT
  8
7
 10
396.270243
 20
-885.3
 30
0.0
  0
POINT
  8
7
 10
396.270243
 20
-885.3
 30
0.0
  0
POINT
  8
7
 10
391.770243
 20
-789.5
 30
0.0
  0
POINT
  8
7
 10
495.270243
 20
-885.3
 30
0.0
  0
LINE
  8
6
 10
501.798283
 20
-788.1
 30
0.0
 11
502.016663
 21
-769.3
 31
0.0
  0
LINE
  8
6
 10
486.750893
 20
-793.8
 30
0.0
 11
486.873343
 21
-783.3
 31
0.0
  0
POINT
  8
7
 10
486.770243
 20
-789.5
 30
0.0
  0
POINT
  8
7
 10
501.919283
 20
-777.7
 30
0.0
  0
POINT
  8
7
 10
501.919263
 20
-777.7
 30
0.0
  0
POINT
  8
7
 10
501.919263
 20
-777.7
 30
0.0
  0
ARC
  8
7
 10
527.927204
 20
-771.5
 30
0.0
 40
8.000001
 50
14.999978
 51
88.499979
  0
ARC
  8
7
  6
DASHED
 10
544.770245
 20
-811.5
 30
0.0
 40
0.999998
 50
359.999864
 51
446.999865
  0
ARC
  8
7
 10
543.770247
 20
-813.1
 30
0.0
 40
1.999996
 50
273.000135
 51
360.000136
  0
ARC
  8
7
  6
DASHED
 10
543.770252
 20
-809.9
 30
0.0
 40
1.999991
 50
0.000007
 51
87.000008
  0
LINE
  8
7
 10
545.770243
 20
-807.2
 30
0.0
 11
545.770243
 21
-813.2
 31
0.0
  0
LINE
  8
7
  6
DASHED
 10
531.770243
 20
-809.3
 30
0.0
 11
531.770243
 21
-808.8
 31
0.0
  0
ARC
  8
7
  6
DASHED
 10
531.270247
 20
-808.8
 30
0.0
 40
0.499996
 50
0.000151
 51
87.000151
  0
ARC
  8
7
  6
DASHED
 10
532.270244
 20
-809.3
 30
0.0
 40
0.500001
 50
180.000754
 51
267.000755
  0
LINE
  8
7
  6
DASHED
 10
518.770243
 20
-808.6
 30
0.0
 11
518.770243
 21
-808.1
 31
0.0
  0
ARC
  8
7
  6
DASHED
 10
518.270247
 20
-808.1
 30
0.0
 40
0.499996
 50
0.000151
 51
87.000151
  0
ARC
  8
7
  6
DASHED
 10
515.270247
 20
-806.9
 30
0.0
 40
0.499996
 50
0.000151
 51
87.000151
  0
ARC
  8
7
  6
DASHED
 10
516.270250
 20
-807.0
 30
0.0
 40
0.500007
 50
180.000181
 51
267.000182
  0
ARC
  8
7
  6
DASHED
 10
519.270250
 20
-808.6
 30
0.0
 40
0.500007
 50
180.000181
 51
267.000182
  0
LINE
  8
7
  6
DASHED
 10
516.244083
 20
-807.5
 30
0.0
 11
531.296413
 21
-808.3
 31
0.0
  0
LINE
  8
7
  6
DASHED
 10
519.244083
 20
-809.1
 30
0.0
 11
544.822583
 21
-810.5
 31
0.0
  0
LINE
  8
7
 10
545.770243
 20
-807.2
 30
0.0
 11
535.654613
 21
-769.4
 31
0.0
  0
LINE
  8
7
 10
506.901553
 20
-770.7
 30
0.0
 11
507.742763
 21
-771.4
 31
0.0
  0
LINE
  8
7
 10
507.742753
 20
-771.4
 30
0.0
 11
507.704943
 21
-774.7
 31
0.0
  0
LINE
  8
7
 10
504.892943
 20
-771.4
 30
0.0
 11
504.855133
 21
-774.6
 31
0.0
  0
ARC
  8
7
 10
506.306455
 20
-772.4
 30
0.0
 40
1.730000
 50
89.333383
 51
144.833423
  0
LINE
  8
7
 10
508.054913
 20
-774.7
 30
0.0
 11
508.037453
 21
-776.2
 31
0.0
  0
LINE
  8
7
 10
501.655353
 20
-774.6
 30
0.0
 11
501.937883
 21
-776.1
 31
0.0
  0
LINE
  8
7
 10
502.255313
 20
-774.6
 30
0.0
 11
502.537843
 21
-776.1
 31
0.0
  0
LINE
  8
7
 10
496.205723
 20
-774.5
 30
0.0
 11
496.243533
 21
-771.3
 31
0.0
  0
LINE
  8
7
 10
496.243533
 20
-771.3
 30
0.0
 11
497.102193
 21
-770.6
 31
0.0
  0
LINE
  8
7
 10
499.093353
 20
-771.3
 30
0.0
 11
499.055533
 21
-774.6
 31
0.0
  0
ARC
  8
7
 10
497.657042
 20
-772.3
 30
0.0
 40
1.730003
 50
33.833608
 51
89.333592
  0
LINE
  8
7
 10
497.102213
 20
-770.6
 30
0.0
 11
506.901533
 21
-770.7
 31
0.0
  0
ARC
  8
7
 10
501.932276
 20
-776.6
 30
0.0
 40
5.981655
 50
60.332924
 51
118.333634
  0
LINE
  8
7
 10
495.855743
 20
-774.5
 30
0.0
 11
508.054923
 21
-774.7
 31
0.0
  0
LINE
  8
7
 10
508.037463
 20
-776.2
 30
0.0
 11
495.838293
 21
-776.0
 31
0.0
  0
LINE
  8
7
 10
494.855243
 20
-776.5
 30
0.0
 11
494.978933
 21
-776.5
 31
0.0
  0
LINE
  8
7
 10
494.978933
 20
-776.5
 30
0.0
 11
495.097873
 21
-776.4
 31
0.0
  0
LINE
  8
7
 10
495.097873
 20
-776.4
 30
0.0
 11
495.207483
 21
-776.3
 31
0.0
  0
LINE
  8
7
 10
495.207483
 20
-776.3
 30
0.0
 11
495.303553
 21
-776.1
 31
0.0
  0
LINE
  8
7
 10
495.303553
 20
-776.1
 30
0.0
 11
495.382403
 21
-775.9
 31
0.0
  0
LINE
  8
7
 10
495.382403
 20
-775.9
 30
0.0
 11
495.440983
 21
-775.6
 31
0.0
  0
LINE
  8
7
 10
495.440983
 20
-774.5
 30
0.0
 11
495.382403
 21
-774.2
 31
0.0
  0
LINE
  8
7
 10
495.382403
 20
-774.2
 30
0.0
 11
495.303553
 21
-774.0
 31
0.0
  0
LINE
  8
7
 10
495.303553
 20
-774.0
 30
0.0
 11
495.207483
 21
-773.8
 31
0.0
  0
LINE
  8
7
 10
495.207483
 20
-773.8
 30
0.0
 11
495.097873
 21
-773.6
 31
0.0
  0
LINE
  8
7
 10
495.097873
 20
-773.6
 30
0.0
 11
494.978933
 21
-773.6
 31
0.0
  0
LINE
  8
7
 10
494.978933
 20
-773.6
 30
0.0
 11
494.855243
 21
-773.5
 31
0.0
  0
LINE
  8
7
 10
492.770243
 20
-776.5
 30
0.0
 11
494.855243
 21
-776.5
 31
0.0
  0
LINE
  8
7
 10
492.770243
 20
-773.5
 30
0.0
 11
494.855243
 21
-773.5
 31
0.0
  0
LINE
  8
7
 10
492.770243
 20
-767.4
 30
0.0
 11
480.770243
 21
-767.4
 31
0.0
  0
LINE
  8
7
 10
480.770243
 20
-767.0
 30
0.0
 11
492.770243
 21
-767.0
 31
0.0
  0
LINE
  8
7
 10
495.440983
 20
-775.6
 30
0.0
 11
495.477063
 21
-775.3
 31
0.0
  0
LINE
  8
7
 10
495.477063
 20
-775.3
 30
0.0
 11
495.489243
 21
-775.0
 31
0.0
  0
LINE
  8
7
 10
495.489243
 20
-775.0
 30
0.0
 11
495.477063
 21
-774.7
 31
0.0
  0
LINE
  8
7
 10
495.477063
 20
-774.7
 30
0.0
 11
495.440983
 21
-774.5
 31
0.0
  0
LINE
  8
7
 10
495.838303
 20
-776.0
 30
0.0
 11
495.855753
 21
-774.5
 31
0.0
  0
LINE
  8
7
 10
504.829503
 20
-785.4
 30
0.0
 11
504.888833
 21
-780.3
 31
0.0
  0
LINE
  8
7
 10
507.938703
 20
-777.8
 30
0.0
 11
507.908453
 21
-780.4
 31
0.0
  0
LINE
  8
7
 10
498.829903
 20
-785.4
 30
0.0
 11
498.889233
 21
-780.3
 31
0.0
  0
LINE
  8
7
 10
499.389203
 20
-785.4
 30
0.0
 11
499.389203
 21
-780.3
 31
0.0
  0
LINE
  8
7
 10
507.668873
 20
-777.8
 30
0.0
 11
496.169653
 21
-777.6
 31
0.0
  0
LINE
  8
7
 10
504.388863
 20
-785.4
 30
0.0
 11
504.388863
 21
-780.3
 31
0.0
  0
LINE
  8
7
 10
498.829903
 20
-785.4
 30
0.0
 11
504.829503
 21
-785.4
 31
0.0
  0
LINE
  8
7
 10
496.439483
 20
-777.6
 30
0.0
 11
507.938703
 21
-777.8
 31
0.0
  0
LINE
  8
7
 10
496.409223
 20
-780.2
 30
0.0
 11
507.908453
 21
-780.4
 31
0.0
  0
ARC
  8
7
  6
DASHED
 10
501.128410
 20
-802.7
 30
0.0
 40
2.999999
 50
195.000022
 51
267.000023
  0
ARC
  8
7
 10
489.670246
 20
-786.9
 30
0.0
 40
1.599997
 50
359.999770
 51
433.808487
  0
ARC
  8
7
 10
494.837475
 20
-792.7
 30
0.0
 40
0.500005
 50
15.000024
 51
89.333354
  0
ARC
  8
7
 10
492.705918
 20
-789.1
 30
0.0
 40
0.499999
 50
269.333634
 51
359.333633
  0
LINE
  8
7
 10
490.945243
 20
-789.5
 30
0.0
 11
490.945243
 21
-788.2
 31
0.0
  0
ARC
  8
7
  6
DASHED
 10
491.642752
 20
-790.5
 30
0.0
 40
2.999993
 50
14.999995
 51
88.499995
  0
LINE
  8
7
 10
491.270243
 20
-788.2
 30
0.0
 11
491.270243
 21
-786.9
 31
0.0
  0
LINE
  8
7
 10
493.303623
 20
-780.7
 30
0.0
 11
493.205883
 21
-789.1
 31
0.0
  0
ARC
  8
7
 10
479.970243
 20
-787.7
 30
0.0
 40
0.500000
 50
359.999833
 51
448.499834
  0
ARC
  8
7
 10
483.870241
 20
-786.9
 30
0.0
 40
1.599998
 50
106.191150
 51
179.999758
  0
LINE
  8
7
 10
486.770243
 20
-788.2
 30
0.0
 11
486.019693
 21
-789.5
 31
0.0
  0
LINE
  8
7
 10
480.770653
 20
-792.1
 30
0.0
 11
480.800903
 21
-789.5
 31
0.0
  0
LINE
  8
7
 10
482.595253
 20
-789.5
 30
0.0
 11
482.595253
 21
-788.2
 31
0.0
  0
ARC
  8
7
  6
DASHED
 10
479.642752
 20
-790.1
 30
0.0
 40
2.999993
 50
14.999995
 51
88.499995
  0
LINE
  8
7
 10
480.470243
 20
-787.7
 30
0.0
 11
480.470243
 21
-792.1
 31
0.0
  0
LINE
  8
7
 10
482.270243
 20
-788.2
 30
0.0
 11
482.270243
 21
-786.9
 31
0.0
  0
LINE
  8
7
 10
480.470243
 20
-792.1
 30
0.0
 11
494.843293
 21
-792.2
 31
0.0
  0
LINE
  8
7
 10
486.770243
 20
-789.5
 30
0.0
 11
487.520803
 21
-788.2
 31
0.0
  0
LINE
  8
7
 10
482.270243
 20
-788.2
 30
0.0
 11
491.270243
 21
-788.2
 31
0.0
  0
ARC
  8
7
 10
486.770265
 20
-796.9
 30
0.0
 40
12.000008
 50
73.808739
 51
106.191432
  0
ARC
  8
7
 10
486.770248
 20
-784.9
 30
0.0
 40
2.000002
 50
184.780192
 51
355.219808
  0
LINE
  8
7
 10
492.700103
 20
-789.6
 30
0.0
 11
480.800903
 21
-789.5
 31
0.0
  0
LINE
  8
7
 10
492.669843
 20
-792.2
 30
0.0
 11
480.770653
 21
-792.1
 31
0.0
  0
ARC
  8
7
  6
DASHED
 10
489.042900
 20
-802.0
 30
0.0
 40
2.999999
 50
195.000022
 51
267.000023
  0
LINE
  8
7
  6
DASHED
 10
482.540523
 20
-789.4
 30
0.0
 11
486.145123
 21
-802.8
 31
0.0
  0
LINE
  8
7
  6
DASHED
 10
498.230633
 20
-803.5
 30
0.0
 11
494.540523
 21
-789.7
 31
0.0
  0
ARC
  8
7
 10
492.705913
 20
-789.1
 30
0.0
 40
3.100000
 50
269.333321
 51
359.333321
  0
ARC
  8
7
 10
496.403408
 20
-780.7
 30
0.0
 40
0.499999
 50
89.333634
 51
179.333633
  0
LINE
  8
7
 10
495.805703
 20
-789.1
 30
0.0
 11
495.903443
 21
-780.7
 31
0.0
  0
LINE
  8
7
 10
480.770243
 20
-789.5
 30
0.0
 11
480.770243
 21
-767.0
 31
0.0
  0
LINE
  8
7
 10
492.770243
 20
-789.5
 30
0.0
 11
492.770243
 21
-767.0
 31
0.0
  0
LINE
  8
7
 10
496.169653
 20
-777.6
 30
0.0
 11
496.188273
 21
-776.0
 31
0.0
  0
LINE
  8
7
 10
507.687483
 20
-776.2
 30
0.0
 11
507.668873
 21
-777.8
 31
0.0
  0
ARC
  8
7
 10
496.403413
 20
-780.7
 30
0.0
 40
3.100000
 50
89.333321
 51
179.333321
  0
LINE
  8
7
 10
488.456233
 20
-818.0
 30
0.0
 11
543.874923
 21
-815.1
 31
0.0
  0
LINE
  8
7
  6
DASHED
 10
488.885893
 20
-805.0
 30
0.0
 11
543.874923
 21
-807.9
 31
0.0
  0
LINE
  8
7
 10
497.770243
 20
-825.2
 30
0.0
 11
497.770243
 21
-823.8
 31
0.0
  0
LINE
  8
7
 10
497.429243
 20
-825.2
 30
0.0
 11
497.429243
 21
-823.8
 31
0.0
  0
ARC
  8
7
 10
500.770243
 20
-825.2
 30
0.0
 40
2.0
 50
180.0
 51
270.0
  0
LINE
  8
7
 10
492.770243
 20
-825.2
 30
0.0
 11
492.770243
 21
-823.8
 31
0.0
  0
LINE
  8
7
 10
493.111243
 20
-825.2
 30
0.0
 11
493.111243
 21
-823.8
 31
0.0
  0
ARC
  8
7
 10
489.770243
 20
-825.2
 30
0.0
 40
2.0
 50
270.0
 51
360.0
  0
ARC
  8
7
 10
484.270243
 20
-827.2
 30
0.0
 40
2.0
 50
0.0
 51
90.0
  0
LINE
  8
7
 10
482.770243
 20
-824.4
 30
0.0
 11
482.770243
 21
-825.2
 31
0.0
  0
LINE
  8
7
 10
497.770243
 20
-823.8
 30
0.0
 11
492.770243
 21
-823.8
 31
0.0
  0
LINE
  8
7
 10
498.770243
 20
-825.2
 30
0.0
 11
491.770243
 21
-825.2
 31
0.0
  0
LINE
  8
7
 10
499.770243
 20
-885.3
 30
0.0
 11
499.770243
 21
-887.1
 31
0.0
  0
ARC
  8
7
 10
498.170243
 20
-887.1
 30
0.0
 40
1.600000
 50
286.191576
 51
360.000167
  0
LINE
  8
7
 10
500.770243
 20
-885.3
 30
0.0
 11
500.770243
 21
-897.3
 31
0.0
  0
LINE
  8
7
 10
500.770243
 20
-885.3
 30
0.0
 11
506.270243
 21
-885.3
 31
0.0
  0
LINE
  8
7
 10
490.770243
 20
-885.3
 30
0.0
 11
490.770243
 21
-887.1
 31
0.0
  0
ARC
  8
7
 10
492.370245
 20
-887.1
 30
0.0
 40
1.600002
 50
180.000008
 51
253.808725
  0
ARC
  8
7
 10
495.270243
 20
-897.3
 30
0.0
 40
5.500000
 50
180.0
 51
270.0
  0
LINE
  8
7
 10
489.770243
 20
-885.3
 30
0.0
 11
489.770243
 21
-897.3
 31
0.0
  0
LINE
  8
7
 10
499.770243
 20
-885.3
 30
0.0
 11
490.770243
 21
-885.3
 31
0.0
  0
ARC
  8
7
 10
495.270248
 20
-877.1
 30
0.0
 40
12.000008
 50
253.808654
 51
286.191346
  0
LINE
  8
7
 10
499.770243
 20
-885.8
 30
0.0
 11
490.770243
 21
-885.8
 31
0.0
  0
ARC
  8
7
 10
495.270248
 20
-889.1
 30
0.0
 40
2.000002
 50
4.780192
 51
175.219808
  0
LINE
  8
7
 10
489.770243
 20
-885.3
 30
0.0
 11
500.770243
 21
-885.3
 31
0.0
  0
ARC
  8
7
 10
495.270243
 20
-897.3
 30
0.0
 40
5.500000
 50
270.0
 51
360.0
  0
LINE
  8
7
 10
506.270243
 20
-827.2
 30
0.0
 11
506.270243
 21
-883.0
 31
0.0
  0
LINE
  8
7
 10
525.770243
 20
-930.3
 30
0.0
 11
525.770243
 21
-928.0
 31
0.0
  0
POINT
  8
7
 10
525.770249
 20
-930.3
 30
0.0
  0
POINT
  8
7
 10
525.770249
 20
-928.0
 30
0.0
  0
ARC
  8
7
 10
523.770243
 20
-981.8
 30
0.0
 40
2.0
 50
0.0
 51
90.0
  0
LINE
  8
7
 10
506.270243
 20
-920.2
 30
0.0
 11
510.770243
 21
-928.0
 31
0.0
  0
LINE
  8
7
 10
515.770243
 20
-988.3
 30
0.0
 11
501.430503
 21
-988.3
 31
0.0
  0
LINE
  8
7
 10
510.770243
 20
-928.0
 30
0.0
 11
525.770243
 21
-928.0
 31
0.0
  0
LINE
  8
7
  6
DASHED
 10
482.770243
 20
-824.0
 30
0.0
 11
482.770243
 21
-915.5
 31
0.0
  0
LINE
  8
7
 10
506.270243
 20
-920.2
 30
0.0
 11
506.270243
 21
-883.0
 31
0.0
  0
ARC
  8
7
 10
488.770247
 20
-824.0
 30
0.0
 40
6.000004
 50
92.999984
 51
179.999985
  0
LINE
  8
7
 10
385.770243
 20
-776.5
 30
0.0
 11
383.685243
 21
-776.5
 31
0.0
  0
LINE
  8
7
 10
385.770243
 20
-773.5
 30
0.0
 11
383.685243
 21
-773.5
 31
0.0
  0
LINE
  8
7
 10
383.685243
 20
-773.5
 30
0.0
 11
383.561563
 21
-773.5
 31
0.0
  0
LINE
  8
7
 10
383.561563
 20
-773.5
 30
0.0
 11
383.442623
 21
-773.6
 31
0.0
  0
LINE
  8
7
 10
383.442623
 20
-773.6
 30
0.0
 11
383.333013
 21
-773.8
 31
0.0
  0
LINE
  8
7
 10
383.333013
 20
-773.8
 30
0.0
 11
383.236943
 21
-773.9
 31
0.0
  0
LINE
  8
7
 10
383.236943
 20
-773.9
 30
0.0
 11
383.158093
 21
-774.2
 31
0.0
  0
LINE
  8
7
 10
383.158093
 20
-774.2
 30
0.0
 11
383.099503
 21
-774.4
 31
0.0
  0
LINE
  8
7
 10
383.099503
 20
-774.4
 30
0.0
 11
383.063433
 21
-774.7
 31
0.0
  0
LINE
  8
7
 10
383.063433
 20
-774.7
 30
0.0
 11
383.051243
 21
-775.0
 31
0.0
  0
LINE
  8
7
 10
383.051243
 20
-775.0
 30
0.0
 11
383.063433
 21
-775.3
 31
0.0
  0
LINE
  8
7
 10
383.063433
 20
-775.3
 30
0.0
 11
383.099503
 21
-775.6
 31
0.0
  0
LINE
  8
7
 10
383.099503
 20
-775.6
 30
0.0
 11
383.158093
 21
-775.8
 31
0.0
  0
LINE
  8
7
 10
383.158093
 20
-775.8
 30
0.0
 11
383.236943
 21
-776.1
 31
0.0
  0
LINE
  8
7
 10
383.236943
 20
-776.1
 30
0.0
 11
383.333013
 21
-776.2
 31
0.0
  0
LINE
  8
7
 10
383.333013
 20
-776.2
 30
0.0
 11
383.442623
 21
-776.4
 31
0.0
  0
LINE
  8
7
 10
383.442623
 20
-776.4
 30
0.0
 11
383.561563
 21
-776.5
 31
0.0
  0
LINE
  8
7
 10
383.561563
 20
-776.5
 30
0.0
 11
383.685243
 21
-776.5
 31
0.0
  0
LINE
  8
7
 10
385.770243
 20
-770.2
 30
0.0
 11
397.770243
 21
-770.2
 31
0.0
  0
LINE
  8
7
 10
385.770243
 20
-767.3
 30
0.0
 11
397.770243
 21
-767.3
 31
0.0
  0
LINE
  8
7
 10
397.770243
 20
-767.0
 30
0.0
 11
385.770243
 21
-767.0
 31
0.0
  0
LINE
  8
7
 10
401.770243
 20
-785.9
 30
0.0
 11
401.770243
 21
-790.5
 31
0.0
  0
ARC
  8
7
 10
394.670252
 20
-786.9
 30
0.0
 40
1.599991
 50
359.999949
 51
433.808666
  0
LINE
  8
7
 10
396.520243
 20
-790.5
 30
0.0
 11
396.520243
 21
-789.5
 31
0.0
  0
LINE
  8
7
 10
391.770243
 20
-789.5
 30
0.0
 11
392.520803
 21
-788.2
 31
0.0
  0
LINE
  8
7
 10
395.945243
 20
-789.5
 30
0.0
 11
395.945243
 21
-788.2
 31
0.0
  0
LINE
  8
7
 10
396.270243
 20
-788.2
 30
0.0
 11
396.270243
 21
-786.9
 31
0.0
  0
ARC
  8
7
  6
DASHED
 10
402.013636
 20
-802.3
 30
0.0
 40
2.999999
 50
272.999977
 51
344.999978
  0
ARC
  8
7
 10
388.870247
 20
-786.9
 30
0.0
 40
1.600004
 50
106.191329
 51
179.999937
  0
LINE
  8
7
 10
387.595253
 20
-789.5
 30
0.0
 11
387.595253
 21
-788.2
 31
0.0
  0
LINE
  8
7
 10
387.020243
 20
-790.5
 30
0.0
 11
387.020243
 21
-789.5
 31
0.0
  0
LINE
  8
7
 10
387.270243
 20
-788.2
 30
0.0
 11
387.270243
 21
-786.9
 31
0.0
  0
LINE
  8
7
 10
381.770243
 20
-786.6
 30
0.0
 11
381.770243
 21
-790.5
 31
0.0
  0
ARC
  8
7
  6
DASHED
 10
382.897739
 20
-789.4
 30
0.0
 40
3.0
 50
91.499906
 51
164.999906
  0
LINE
  8
7
  6
DASHED
 10
375.704753
 20
-804.6
 30
0.0
 11
379.999963
 21
-788.6
 31
0.0
  0
LINE
  8
7
 10
381.770243
 20
-790.5
 30
0.0
 11
401.770243
 21
-790.5
 31
0.0
  0
LINE
  8
7
 10
385.770243
 20
-780.8
 30
0.0
 11
397.770243
 21
-780.8
 31
0.0
  0
LINE
  8
7
 10
397.770243
 20
-789.5
 30
0.0
 11
385.770243
 21
-789.5
 31
0.0
  0
LINE
  8
7
 10
391.770243
 20
-788.2
 30
0.0
 11
391.019693
 21
-789.5
 31
0.0
  0
LINE
  8
7
 10
387.270243
 20
-788.2
 30
0.0
 11
396.270243
 21
-788.2
 31
0.0
  0
ARC
  8
7
 10
391.770248
 20
-796.9
 30
0.0
 40
12.000008
 50
73.808654
 51
106.191346
  0
ARC
  8
7
 10
391.770248
 20
-784.9
 30
0.0
 40
2.000002
 50
184.780192
 51
355.219808
  0
LINE
  8
7
 10
385.770243
 20
-789.5
 30
0.0
 11
385.770243
 21
-767.0
 31
0.0
  0
LINE
  8
7
 10
397.770243
 20
-789.5
 30
0.0
 11
397.770243
 21
-767.0
 31
0.0
  0
ARC
  8
7
 10
369.058450
 20
-769.8
 30
0.0
 40
8.000002
 50
91.500018
 51
165.000018
  0
ARC
  8
7
 10
352.770247
 20
-813.1
 30
0.0
 40
2.0
 50
179.999985
 51
266.999986
  0
ARC
  8
7
  6
DASHED
 10
352.770242
 20
-809.9
 30
0.0
 40
1.999995
 50
92.999871
 51
179.999872
  0
LINE
  8
7
 10
350.770247
 20
-813.1
 30
0.0
 11
350.770247
 21
-807.2
 31
0.0
  0
LINE
  8
7
 10
350.770247
 20
-807.2
 30
0.0
 11
361.331041
 21
-767.8
 31
0.0
  0
ARC
  8
7
  6
DASHED
 10
372.806975
 20
-803.9
 30
0.0
 40
3.000001
 50
272.999946
 51
344.999947
  0
LINE
  8
7
 10
403.084263
 20
-817.7
 30
0.0
 11
352.665575
 21
-815.1
 31
0.0
  0
LINE
  8
7
  6
DASHED
 10
402.170643
 20
-805.3
 30
0.0
 11
352.665575
 21
-807.9
 31
0.0
  0
LINE
  8
7
  6
DASHED
 10
416.770243
 20
-785.5
 30
0.0
 11
382.819213
 21
-786.4
 31
0.0
  0
ARC
  8
7
  6
DASHED
 10
411.897746
 20
-788.6
 30
0.0
 40
3.000005
 50
91.500031
 51
165.000032
  0
LINE
  8
7
  6
DASHED
 10
408.999963
 20
-787.9
 30
0.0
 11
404.911413
 21
-803.1
 31
0.0
  0
LINE
  8
7
 10
416.770243
 20
-760.6
 30
0.0
 11
368.849032
 21
-761.8
 31
0.0
  0
POINT
  8
7
 10
350.770245
 20
-813.1
 30
0.0
  0
LINE
  8
7
 10
475.770243
 20
-924.3
 30
0.0
 11
475.770243
 21
-924.5
 31
0.0
  0
LINE
  8
7
 10
415.770243
 20
-924.3
 30
0.0
 11
415.770243
 21
-924.5
 31
0.0
  0
ARC
  8
7
 10
412.770243
 20
-924.3
 30
0.0
 40
3.0
 50
359.999942
 51
437.160354
  0
LINE
  8
7
  6
DASHED
 10
415.770243
 20
-924.5
 30
0.0
 11
475.770243
 21
-924.5
 31
0.0
  0
LINE
  8
7
  6
DASHED
 10
414.770243
 20
-921.5
 30
0.0
 11
476.770243
 21
-921.5
 31
0.0
  0
ARC
  8
7
 10
407.270243
 20
-827.2
 30
0.0
 40
2.0
 50
90.0
 51
180.0
  0
LINE
  8
7
 10
398.770243
 20
-825.2
 30
0.0
 11
398.770243
 21
-823.8
 31
0.0
  0
LINE
  8
7
 10
398.429243
 20
-825.2
 30
0.0
 11
398.429243
 21
-823.8
 31
0.0
  0
LINE
  8
7
 10
393.770243
 20
-825.2
 30
0.0
 11
393.770243
 21
-823.8
 31
0.0
  0
LINE
  8
7
 10
394.111243
 20
-825.2
 30
0.0
 11
394.111243
 21
-823.8
 31
0.0
  0
LINE
  8
7
 10
393.770243
 20
-823.8
 30
0.0
 11
398.770243
 21
-823.8
 31
0.0
  0
LINE
  8
7
 10
392.770243
 20
-825.2
 30
0.0
 11
399.770243
 21
-825.2
 31
0.0
  0
ARC
  8
7
 10
401.770243
 20
-825.2
 30
0.0
 40
2.0
 50
180.0
 51
270.0
  0
ARC
  8
7
 10
390.770243
 20
-825.2
 30
0.0
 40
2.0
 50
270.0
 51
360.0
  0
LINE
  8
7
 10
400.770243
 20
-887.0
 30
0.0
 11
401.770243
 21
-887.0
 31
0.0
  0
LINE
  8
7
 10
400.770243
 20
-885.3
 30
0.0
 11
400.770243
 21
-887.1
 31
0.0
  0
LINE
  8
7
 10
400.770243
 20
-885.3
 30
0.0
 11
400.770243
 21
-891.2
 31
0.0
  0
LINE
  8
7
 10
400.427703
 20
-892.0
 30
0.0
 11
400.683783
 21
-891.6
 31
0.0
  0
LINE
  8
7
 10
400.683783
 20
-891.6
 30
0.0
 11
400.770243
 21
-891.2
 31
0.0
  0
LINE
  8
7
 10
401.770243
 20
-885.3
 30
0.0
 11
401.770243
 21
-891.7
 31
0.0
  0
LINE
  8
7
 10
401.770243
 20
-891.7
 30
0.0
 11
401.770243
 21
-897.3
 31
0.0
  0
LINE
  8
7
 10
396.270243
 20
-893.2
 30
0.0
 11
397.148153
 21
-893.2
 31
0.0
  0
LINE
  8
7
 10
397.148153
 20
-893.2
 30
0.0
 11
397.992323
 21
-893.1
 31
0.0
  0
LINE
  8
7
 10
397.992323
 20
-893.1
 30
0.0
 11
398.770313
 21
-892.9
 31
0.0
  0
LINE
  8
7
 10
398.770313
 20
-892.9
 30
0.0
 11
399.452223
 21
-892.6
 31
0.0
  0
LINE
  8
7
 10
397.270243
 20
-892.3
 30
0.0
 11
397.251033
 21
-892.2
 31
0.0
  0
LINE
  8
7
 10
397.251033
 20
-892.2
 30
0.0
 11
397.194123
 21
-892.1
 31
0.0
  0
LINE
  8
7
 10
397.194123
 20
-892.1
 30
0.0
 11
397.101713
 21
-892.0
 31
0.0
  0
LINE
  8
7
 10
397.101713
 20
-892.0
 30
0.0
 11
396.977353
 21
-891.9
 31
0.0
  0
LINE
  8
7
 10
396.977353
 20
-891.9
 30
0.0
 11
396.825813
 21
-891.8
 31
0.0
  0
LINE
  8
7
 10
396.825813
 20
-891.8
 30
0.0
 11
396.652933
 21
-891.8
 31
0.0
  0
LINE
  8
7
 10
396.652933
 20
-891.8
 30
0.0
 11
396.465333
 21
-891.8
 31
0.0
  0
LINE
  8
7
 10
396.465333
 20
-891.8
 30
0.0
 11
396.270243
 21
-891.8
 31
0.0
  0
LINE
  8
7
 10
396.270243
 20
-891.8
 30
0.0
 11
396.075153
 21
-891.8
 31
0.0
  0
LINE
  8
7
 10
396.075153
 20
-891.8
 30
0.0
 11
395.887563
 21
-891.8
 31
0.0
  0
LINE
  8
7
 10
395.887563
 20
-892.7
 30
0.0
 11
396.075153
 21
-892.7
 31
0.0
  0
LINE
  8
7
 10
396.075153
 20
-892.7
 30
0.0
 11
396.270243
 21
-892.8
 31
0.0
  0
LINE
  8
7
 10
396.270243
 20
-892.8
 30
0.0
 11
396.465333
 21
-892.7
 31
0.0
  0
LINE
  8
7
 10
396.465333
 20
-892.7
 30
0.0
 11
396.652933
 21
-892.7
 31
0.0
  0
LINE
  8
7
 10
396.652933
 20
-892.7
 30
0.0
 11
396.825813
 21
-892.7
 31
0.0
  0
LINE
  8
7
 10
396.825813
 20
-892.7
 30
0.0
 11
396.977353
 21
-892.6
 31
0.0
  0
LINE
  8
7
 10
396.977353
 20
-892.6
 30
0.0
 11
397.101713
 21
-892.5
 31
0.0
  0
LINE
  8
7
 10
397.101713
 20
-892.5
 30
0.0
 11
397.194123
 21
-892.4
 31
0.0
  0
LINE
  8
7
 10
397.194123
 20
-892.4
 30
0.0
 11
397.251033
 21
-892.4
 31
0.0
  0
LINE
  8
7
 10
397.251033
 20
-892.4
 30
0.0
 11
397.270243
 21
-892.3
 31
0.0
  0
LINE
  8
7
 10
391.770243
 20
-885.3
 30
0.0
 11
391.770243
 21
-887.1
 31
0.0
  0
LINE
  8
7
 10
391.770243
 20
-885.3
 30
0.0
 11
391.770243
 21
-891.2
 31
0.0
  0
LINE
  8
7
 10
391.770243
 20
-891.2
 30
0.0
 11
391.856713
 21
-891.6
 31
0.0
  0
LINE
  8
7
 10
391.856713
 20
-891.6
 30
0.0
 11
392.112793
 21
-892.0
 31
0.0
  0
LINE
  8
7
 10
392.112793
 20
-892.0
 30
0.0
 11
392.528633
 21
-892.3
 31
0.0
  0
LINE
  8
7
 10
392.528633
 20
-892.3
 30
0.0
 11
393.088263
 21
-892.6
 31
0.0
  0
LINE
  8
7
 10
393.088263
 20
-892.6
 30
0.0
 11
393.770183
 21
-892.9
 31
0.0
  0
LINE
  8
7
 10
393.770183
 20
-892.9
 30
0.0
 11
394.548173
 21
-893.1
 31
0.0
  0
LINE
  8
7
 10
394.548173
 20
-893.1
 30
0.0
 11
395.392343
 21
-893.2
 31
0.0
  0
LINE
  8
7
 10
395.563143
 20
-891.9
 30
0.0
 11
395.438773
 21
-892.0
 31
0.0
  0
LINE
  8
7
 10
395.438773
 20
-892.0
 30
0.0
 11
395.346363
 21
-892.1
 31
0.0
  0
LINE
  8
7
 10
395.346363
 20
-892.1
 30
0.0
 11
395.289463
 21
-892.2
 31
0.0
  0
LINE
  8
7
 10
395.289463
 20
-892.2
 30
0.0
 11
395.270243
 21
-892.3
 31
0.0
  0
LINE
  8
7
 10
395.270243
 20
-892.3
 30
0.0
 11
395.289463
 21
-892.4
 31
0.0
  0
LINE
  8
7
 10
395.289463
 20
-892.4
 30
0.0
 11
395.346363
 21
-892.4
 31
0.0
  0
LINE
  8
7
 10
395.346363
 20
-892.4
 30
0.0
 11
395.438773
 21
-892.5
 31
0.0
  0
LINE
  8
7
 10
395.438773
 20
-892.5
 30
0.0
 11
395.563143
 21
-892.6
 31
0.0
  0
ARC
  8
7
 10
396.270248
 20
-878.3
 30
0.0
 40
12.000008
 50
253.808654
 51
286.191346
  0
LINE
  8
7
 10
395.392343
 20
-893.2
 30
0.0
 11
396.270243
 21
-893.2
 31
0.0
  0
LINE
  8
7
 10
395.887563
 20
-891.8
 30
0.0
 11
395.714673
 21
-891.8
 31
0.0
  0
LINE
  8
7
 10
395.714673
 20
-891.8
 30
0.0
 11
395.563143
 21
-891.9
 31
0.0
  0
LINE
  8
7
 10
395.563143
 20
-892.6
 30
0.0
 11
395.714673
 21
-892.7
 31
0.0
  0
LINE
  8
7
 10
395.714673
 20
-892.7
 30
0.0
 11
395.887563
 21
-892.7
 31
0.0
  0
ARC
  8
7
 10
396.270248
 20
-890.3
 30
0.0
 40
2.000002
 50
4.780192
 51
175.219808
  0
LINE
  8
7
 10
391.670253
 20
-900.3
 30
0.0
 11
391.670253
 21
-897.4
 31
0.0
  0
LINE
  8
7
 10
391.670243
 20
-897.4
 30
0.0
 11
393.170243
 21
-897.4
 31
0.0
  0
LINE
  8
7
 10
393.170243
 20
-897.4
 30
0.0
 11
393.170243
 21
-901.8
 31
0.0
  0
LINE
  8
7
 10
393.170243
 20
-897.8
 30
0.0
 11
394.770243
 21
-897.8
 31
0.0
  0
LINE
  8
7
 10
391.670243
 20
-903.8
 30
0.0
 11
393.170243
 21
-903.5
 31
0.0
  0
LINE
  8
7
 10
391.670243
 20
-903.2
 30
0.0
 11
393.170243
 21
-902.9
 31
0.0
  0
LINE
  8
7
 10
394.770243
 20
-902.6
 30
0.0
 11
394.770243
 21
-897.8
 31
0.0
  0
LINE
  8
7
 10
395.770243
 20
-896.4
 30
0.0
 11
395.770243
 21
-902.8
 31
0.0
  0
LINE
  8
7
 10
395.770243
 20
-898.0
 30
0.0
 11
394.770243
 21
-898.0
 31
0.0
  0
ARC
  8
7
 10
398.770239
 20
-896.4
 30
0.0
 40
2.999996
 50
114.774995
 51
179.999854
  0
LINE
  8
7
 10
398.770243
 20
-895.0
 30
0.0
 11
398.770243
 21
-902.2
 31
0.0
  0
LINE
  8
7
 10
397.513073
 20
-893.7
 30
0.0
 11
401.770243
 21
-891.7
 31
0.0
  0
ARC
  8
7
 10
401.770247
 20
-895.0
 30
0.0
 40
3.000004
 50
114.775091
 51
179.999950
  0
ARC
  8
7
 10
399.170246
 20
-888.3
 30
0.0
 40
1.599997
 50
286.191513
 51
360.000230
  0
LINE
  8
7
 10
391.770243
 20
-885.3
 30
0.0
 11
400.770243
 21
-885.3
 31
0.0
  0
LINE
  8
7
 10
391.770243
 20
-887.0
 30
0.0
 11
400.770243
 21
-887.0
 31
0.0
  0
LINE
  8
7
 10
391.770243
 20
-889.7
 30
0.0
 11
400.770243
 21
-889.7
 31
0.0
  0
LINE
  8
7
 10
391.770243
 20
-889.7
 30
0.0
 11
400.770243
 21
-889.7
 31
0.0
  0
LINE
  8
7
 10
399.452223
 20
-892.6
 30
0.0
 11
400.011863
 21
-892.3
 31
0.0
  0
LINE
  8
7
 10
400.011863
 20
-892.3
 30
0.0
 11
400.427703
 21
-892.0
 31
0.0
  0
LINE
  8
7
 10
391.770243
 20
-885.3
 30
0.0
 11
400.770243
 21
-885.3
 31
0.0
  0
ARC
  8
7
 10
396.270243
 20
-897.3
 30
0.0
 40
5.500000
 50
270.0
 51
360.0
  0
LINE
  8
7
 10
390.770243
 20
-885.3
 30
0.0
 11
385.270243
 21
-885.3
 31
0.0
  0
LINE
  8
7
 10
387.670233
 20
-898.6
 30
0.0
 11
388.420233
 21
-897.7
 31
0.0
  0
LINE
  8
7
 10
388.420243
 20
-897.8
 30
0.0
 11
390.788683
 21
-897.8
 31
0.0
  0
ARC
  8
7
 10
389.400245
 20
-899.2
 30
0.0
 40
1.730002
 50
180.000040
 51
235.500080
  0
ARC
  8
7
 10
390.943228
 20
-900.2
 30
0.0
 40
1.900141
 50
89.999843
 51
92.713158
  0
LINE
  8
7
 10
390.770243
 20
-885.3
 30
0.0
 11
390.770243
 21
-897.3
 31
0.0
  0
LINE
  8
7
 10
390.788683
 20
-897.8
 30
0.0
 11
391.670243
 21
-897.8
 31
0.0
  0
LINE
  8
7
 10
388.420243
 20
-900.6
 30
0.0
 11
391.670253
 21
-900.6
 31
0.0
  0
LINE
  8
7
 10
390.770243
 20
-887.0
 30
0.0
 11
391.770243
 21
-887.0
 31
0.0
  0
ARC
  8
7
 10
393.370247
 20
-888.3
 30
0.0
 40
1.600004
 50
180.000063
 51
253.808671
  0
LINE
  8
7
 10
401.770243
 20
-885.3
 30
0.0
 11
390.770243
 21
-885.3
 31
0.0
  0
ARC
  8
7
 10
396.270243
 20
-897.3
 30
0.0
 40
5.500000
 50
180.0
 51
270.0
  0
LINE
  8
7
 10
385.270243
 20
-827.2
 30
0.0
 11
385.270243
 21
-883.0
 31
0.0
  0
LINE
  8
7
 10
393.170243
 20
-909.6
 30
0.0
 11
391.670243
 21
-909.6
 31
0.0
  0
LINE
  8
7
 10
394.770243
 20
-909.2
 30
0.0
 11
393.170243
 21
-909.2
 31
0.0
  0
ARC
  8
7
 10
398.770247
 20
-909.9
 30
0.0
 40
3.000004
 50
179.999971
 51
261.253808
  0
LINE
  8
7
 10
395.770243
 20
-909.0
 30
0.0
 11
394.770243
 21
-909.0
 31
0.0
  0
ARC
  8
7
 10
396.270243
 20
-915.3
 30
0.0
 40
2.750000
 50
0.0
 51
180.0
  0
ARC
  8
7
 10
396.270243
 20
-915.3
 30
0.0
 40
2.750000
 50
180.0
 51
360.0
  0
LINE
  8
7
 10
398.314073
 20
-912.9
 30
0.0
 11
406.369003
 21
-914.1
 31
0.0
  0
ARC
  8
7
 10
401.770241
 20
-910.4
 30
0.0
 40
2.999998
 50
180.000066
 51
261.253904
  0
LINE
  8
7
 10
388.420233
 20
-909.3
 30
0.0
 11
387.670233
 21
-908.4
 31
0.0
  0
LINE
  8
7
 10
385.270243
 20
-920.2
 30
0.0
 11
380.770243
 21
-928.0
 31
0.0
  0
LINE
  8
7
 10
391.670243
 20
-909.3
 30
0.0
 11
388.420243
 21
-909.3
 31
0.0
  0
LINE
  8
7
 10
375.770243
 20
-988.3
 30
0.0
 11
390.109993
 21
-988.3
 31
0.0
  0
LINE
  8
7
 10
365.770247
 20
-930.3
 30
0.0
 11
365.770247
 21
-928.0
 31
0.0
  0
ARC
  8
7
 10
367.770247
 20
-981.8
 30
0.0
 40
2.0
 50
90.0
 51
180.0
  0
LINE
  8
7
 10
380.770243
 20
-928.0
 30
0.0
 11
365.770247
 21
-928.0
 31
0.0
  0
LINE
  8
7
 10
398.770243
 20
-902.2
 30
0.0
 11
398.770243
 21
-910.4
 31
0.0
  0
LINE
  8
7
 10
395.770243
 20
-902.8
 30
0.0
 11
395.770243
 21
-909.9
 31
0.0
  0
LINE
  8
7
 10
393.170243
 20
-901.8
 30
0.0
 11
393.170243
 21
-909.6
 31
0.0
  0
LINE
  8
7
 10
387.670253
 20
-908.4
 30
0.0
 11
387.670253
 21
-898.6
 31
0.0
  0
LINE
  8
7
 10
388.420243
 20
-906.4
 30
0.0
 11
391.670243
 21
-906.4
 31
0.0
  0
ARC
  8
7
 10
389.400246
 20
-907.8
 30
0.0
 40
1.730003
 50
124.499948
 51
179.999932
  0
ARC
  8
7
 10
393.651910
 20
-903.5
 30
0.0
 40
5.981663
 50
150.999546
 51
209.000256
  0
LINE
  8
7
 10
391.670253
 20
-909.6
 30
0.0
 11
391.670253
 21
-900.3
 31
0.0
  0
LINE
  8
7
 10
394.770243
 20
-897.8
 30
0.0
 11
394.770243
 21
-909.3
 31
0.0
  0
LINE
  8
7
 10
385.270243
 20
-920.2
 30
0.0
 11
385.270243
 21
-883.0
 31
0.0
  0
LINE
  8
7
 10
408.770243
 20
-824.1
 30
0.0
 11
408.770243
 21
-825.2
 31
0.0
  0
ARC
  8
7
 10
414.770243
 20
-915.5
 30
0.0
 40
6.0
 50
180.0
 51
270.0
  0
ARC
  8
7
 10
405.912837
 20
-917.1
 30
0.0
 40
2.999996
 50
10.212582
 51
81.253931
  0
LINE
  8
7
  6
DASHED
 10
408.770243
 20
-823.7
 30
0.0
 11
408.770243
 21
-915.5
 31
0.0
  0
LINE
  8
7
 10
401.770243
 20
-891.7
 30
0.0
 11
408.770243
 21
-888.5
 31
0.0
  0
LINE
  8
7
 10
445.770243
 20
-979.8
 30
0.0
 11
367.770247
 21
-979.8
 31
0.0
  0
LINE
  8
7
 10
445.770243
 20
-930.3
 30
0.0
 11
365.770247
 21
-930.3
 31
0.0
  0
LINE
  8
7
  6
DASHED
 10
445.770243
 20
-928.0
 30
0.0
 11
380.770243
 21
-928.0
 31
0.0
  0
LINE
  8
7
 10
445.770243
 20
-885.3
 30
0.0
 11
401.770243
 21
-885.3
 31
0.0
  0
LINE
  8
7
 10
445.770243
 20
-883.0
 30
0.0
 11
385.270243
 21
-883.0
 31
0.0
  0
ARC
  8
7
 10
402.770244
 20
-823.7
 30
0.0
 40
5.999999
 50
359.999965
 51
446.999966
  0
LINE
  8
7
  6
DASHED
 10
416.770243
 20
-785.5
 30
0.0
 11
491.721283
 21
-787.5
 31
0.0
  0
LINE
  8
7
 10
416.770243
 20
-760.6
 30
0.0
 11
528.136623
 21
-763.5
 31
0.0
  0
ARC
  8
7
 10
476.770243
 20
-915.5
 30
0.0
 40
6.0
 50
270.0
 51
360.0
  0
ARC
  8
7
 10
478.770248
 20
-924.3
 30
0.0
 40
3.000005
 50
102.839527
 51
179.999938
  0
LINE
  8
7
 10
360.770247
 20
-815.5
 30
0.0
 11
535.770243
 21
-815.5
 31
0.0
  0
LINE
  8
7
 10
482.770243
 20
-818.7
 30
0.0
 11
408.770243
 21
-818.7
 31
0.0
  0
LINE
  8
7
 10
445.770243
 20
-979.8
 30
0.0
 11
523.770243
 21
-979.8
 31
0.0
  0
LINE
  8
7
  6
DASHED
 10
445.770243
 20
-928.0
 30
0.0
 11
510.770243
 21
-928.0
 31
0.0
  0
LINE
  8
7
 10
445.770243
 20
-883.0
 30
0.0
 11
506.270243
 21
-883.0
 31
0.0
  0
LINE
  8
7
 10
445.770243
 20
-885.3
 30
0.0
 11
489.770243
 21
-885.3
 31
0.0
  0
LINE
  8
7
 10
445.770243
 20
-930.3
 30
0.0
 11
525.770243
 21
-930.3
 31
0.0
  0
LINE
  8
7
  6
DASHED
 10
492.770243
 20
-782.0
 30
0.0
 11
385.770243
 21
-782.0
 31
0.0
  0
LINE
  8
7
  6
DASHED
 10
492.770243
 20
-768.0
 30
0.0
 11
385.770243
 21
-768.0
 31
0.0
  0
LINE
  8
7
 10
385.270243
 20
-829.5
 30
0.0
 11
506.270243
 21
-829.5
 31
0.0
  0
LINE
  8
7
 10
506.270243
 20
-883.0
 30
0.0
 11
385.270243
 21
-883.0
 31
0.0
  0
LINE
  8
7
 10
385.270243
 20
-827.2
 30
0.0
 11
506.270243
 21
-827.2
 31
0.0
  0
LINE
  8
7
 10
385.270243
 20
-830.3
 30
0.0
 11
506.270243
 21
-830.3
 31
0.0
  0
LINE
  8
7
 10
385.270243
 20
-831.1
 30
0.0
 11
506.270243
 21
-831.1
 31
0.0
  0
LINE
  8
7
 10
385.270243
 20
-831.9
 30
0.0
 11
506.270243
 21
-831.9
 31
0.0
  0
LINE
  8
7
 10
385.270243
 20
-832.7
 30
0.0
 11
506.270243
 21
-832.7
 31
0.0
  0
LINE
  8
7
 10
385.270243
 20
-833.5
 30
0.0
 11
506.270243
 21
-833.5
 31
0.0
  0
LINE
  8
7
 10
385.270243
 20
-834.3
 30
0.0
 11
506.270243
 21
-834.3
 31
0.0
  0
LINE
  8
7
 10
385.270243
 20
-835.1
 30
0.0
 11
506.270243
 21
-835.1
 31
0.0
  0
LINE
  8
7
 10
385.270243
 20
-835.9
 30
0.0
 11
506.270243
 21
-835.9
 31
0.0
  0
LINE
  8
7
 10
385.270243
 20
-836.7
 30
0.0
 11
506.270243
 21
-836.7
 31
0.0
  0
LINE
  8
7
 10
385.270243
 20
-837.5
 30
0.0
 11
506.270243
 21
-837.5
 31
0.0
  0
LINE
  8
7
 10
385.270243
 20
-838.3
 30
0.0
 11
506.270243
 21
-838.3
 31
0.0
  0
LINE
  8
7
 10
385.270243
 20
-839.1
 30
0.0
 11
506.270243
 21
-839.1
 31
0.0
  0
LINE
  8
7
 10
385.270243
 20
-839.9
 30
0.0
 11
506.270243
 21
-839.9
 31
0.0
  0
LINE
  8
7
 10
385.270243
 20
-840.7
 30
0.0
 11
506.270243
 21
-840.7
 31
0.0
  0
LINE
  8
7
 10
385.270243
 20
-841.5
 30
0.0
 11
506.270243
 21
-841.5
 31
0.0
  0
LINE
  8
7
 10
385.270243
 20
-842.3
 30
0.0
 11
506.270243
 21
-842.3
 31
0.0
  0
LINE
  8
7
 10
385.270243
 20
-843.1
 30
0.0
 11
506.270243
 21
-843.1
 31
0.0
  0
LINE
  8
7
 10
385.270243
 20
-843.9
 30
0.0
 11
506.270243
 21
-843.9
 31
0.0
  0
LINE
  8
7
 10
385.270243
 20
-844.7
 30
0.0
 11
506.270243
 21
-844.7
 31
0.0
  0
LINE
  8
7
 10
385.270243
 20
-845.5
 30
0.0
 11
506.270243
 21
-845.5
 31
0.0
  0
LINE
  8
7
 10
385.270243
 20
-846.3
 30
0.0
 11
506.270243
 21
-846.3
 31
0.0
  0
LINE
  8
7
 10
385.270243
 20
-847.1
 30
0.0
 11
506.270243
 21
-847.1
 31
0.0
  0
LINE
  8
7
 10
385.270243
 20
-847.9
 30
0.0
 11
506.270243
 21
-847.9
 31
0.0
  0
LINE
  8
7
 10
385.270243
 20
-848.7
 30
0.0
 11
506.270243
 21
-848.7
 31
0.0
  0
LINE
  8
7
 10
385.270243
 20
-849.5
 30
0.0
 11
506.270243
 21
-849.5
 31
0.0
  0
LINE
  8
7
 10
385.270243
 20
-850.3
 30
0.0
 11
506.270243
 21
-850.3
 31
0.0
  0
LINE
  8
7
 10
385.270243
 20
-851.1
 30
0.0
 11
506.270243
 21
-851.1
 31
0.0
  0
LINE
  8
7
 10
385.270243
 20
-851.9
 30
0.0
 11
506.270243
 21
-851.9
 31
0.0
  0
LINE
  8
7
 10
385.270243
 20
-852.7
 30
0.0
 11
506.270243
 21
-852.7
 31
0.0
  0
LINE
  8
7
 10
385.270243
 20
-853.5
 30
0.0
 11
506.270243
 21
-853.5
 31
0.0
  0
LINE
  8
7
 10
385.270243
 20
-854.3
 30
0.0
 11
506.270243
 21
-854.3
 31
0.0
  0
LINE
  8
7
 10
385.270243
 20
-855.1
 30
0.0
 11
506.270243
 21
-855.1
 31
0.0
  0
LINE
  8
7
 10
385.270243
 20
-855.9
 30
0.0
 11
506.270243
 21
-855.9
 31
0.0
  0
LINE
  8
7
 10
385.270243
 20
-856.7
 30
0.0
 11
506.270243
 21
-856.7
 31
0.0
  0
LINE
  8
7
 10
385.270243
 20
-857.5
 30
0.0
 11
506.270243
 21
-857.5
 31
0.0
  0
LINE
  8
7
 10
385.270243
 20
-858.3
 30
0.0
 11
506.270243
 21
-858.3
 31
0.0
  0
LINE
  8
7
 10
385.270243
 20
-859.1
 30
0.0
 11
506.270243
 21
-859.1
 31
0.0
  0
LINE
  8
7
 10
385.270243
 20
-859.9
 30
0.0
 11
506.270243
 21
-859.9
 31
0.0
  0
LINE
  8
7
 10
385.270243
 20
-860.7
 30
0.0
 11
506.270243
 21
-860.7
 31
0.0
  0
LINE
  8
7
 10
385.270243
 20
-861.5
 30
0.0
 11
506.270243
 21
-861.5
 31
0.0
  0
LINE
  8
7
 10
385.270243
 20
-862.3
 30
0.0
 11
506.270243
 21
-862.3
 31
0.0
  0
LINE
  8
7
 10
385.270243
 20
-863.1
 30
0.0
 11
506.270243
 21
-863.1
 31
0.0
  0
LINE
  8
7
 10
385.270243
 20
-863.9
 30
0.0
 11
506.270243
 21
-863.9
 31
0.0
  0
LINE
  8
7
 10
385.270243
 20
-864.7
 30
0.0
 11
506.270243
 21
-864.7
 31
0.0
  0
LINE
  8
7
 10
385.270243
 20
-865.5
 30
0.0
 11
506.270243
 21
-865.5
 31
0.0
  0
LINE
  8
7
 10
385.270243
 20
-866.3
 30
0.0
 11
506.270243
 21
-866.3
 31
0.0
  0
LINE
  8
7
 10
385.270243
 20
-867.1
 30
0.0
 11
506.270243
 21
-867.1
 31
0.0
  0
LINE
  8
7
 10
385.270243
 20
-867.9
 30
0.0
 11
506.270243
 21
-867.9
 31
0.0
  0
LINE
  8
7
 10
385.270243
 20
-868.7
 30
0.0
 11
506.270243
 21
-868.7
 31
0.0
  0
LINE
  8
7
 10
385.270243
 20
-869.5
 30
0.0
 11
506.270243
 21
-869.5
 31
0.0
  0
LINE
  8
7
 10
385.270243
 20
-870.3
 30
0.0
 11
506.270243
 21
-870.3
 31
0.0
  0
LINE
  8
7
 10
385.270243
 20
-871.1
 30
0.0
 11
506.270243
 21
-871.1
 31
0.0
  0
LINE
  8
7
 10
385.270243
 20
-871.9
 30
0.0
 11
506.270243
 21
-871.9
 31
0.0
  0
LINE
  8
7
 10
385.270243
 20
-872.7
 30
0.0
 11
506.270243
 21
-872.7
 31
0.0
  0
LINE
  8
7
 10
385.270243
 20
-873.5
 30
0.0
 11
506.270243
 21
-873.5
 31
0.0
  0
LINE
  8
7
 10
385.270243
 20
-874.3
 30
0.0
 11
506.270243
 21
-874.3
 31
0.0
  0
LINE
  8
7
 10
385.270243
 20
-875.1
 30
0.0
 11
506.270243
 21
-875.1
 31
0.0
  0
LINE
  8
7
 10
385.270243
 20
-875.9
 30
0.0
 11
506.270243
 21
-875.9
 31
0.0
  0
LINE
  8
7
 10
385.270243
 20
-876.7
 30
0.0
 11
506.270243
 21
-876.7
 31
0.0
  0
LINE
  8
7
 10
385.270243
 20
-877.5
 30
0.0
 11
506.270243
 21
-877.5
 31
0.0
  0
LINE
  8
7
 10
385.270243
 20
-878.3
 30
0.0
 11
506.270243
 21
-878.3
 31
0.0
  0
LINE
  8
7
 10
385.270243
 20
-879.1
 30
0.0
 11
506.270243
 21
-879.1
 31
0.0
  0
LINE
  8
7
 10
385.270243
 20
-879.9
 30
0.0
 11
506.270243
 21
-879.9
 31
0.0
  0
LINE
  8
7
 10
385.270243
 20
-880.7
 30
0.0
 11
506.270243
 21
-880.7
 31
0.0
  0
LINE
  8
7
 10
385.270243
 20
-881.5
 30
0.0
 11
506.270243
 21
-881.5
 31
0.0
  0
LINE
  8
7
 10
385.270243
 20
-882.3
 30
0.0
 11
506.270243
 21
-882.3
 31
0.0
  0
LINE
  8
7
 10
407.270243
 20
-825.2
 30
0.0
 11
484.270243
 21
-825.2
 31
0.0
  0
POINT
  8
7
 10
525.770253
 20
-930.3
 30
0.0
  0
POINT
  8
7
 10
365.770251
 20
-930.3
 30
0.0
  0
ARC
  8
7
 10
523.770243
 20
-1004.8
 30
0.0
 40
2.0
 50
270.0
 51
360.0
  0
LINE
  8
7
 10
515.770243
 20
-998.3
 30
0.0
 11
501.430503
 21
-998.3
 31
0.0
  0
LINE
  8
7
 10
375.770243
 20
-998.3
 30
0.0
 11
390.109993
 21
-998.3
 31
0.0
  0
ARC
  8
7
 10
367.770247
 20
-1004.8
 30
0.0
 40
2.0
 50
180.0
 51
270.0
  0
LINE
  8
7
 10
445.770243
 20
-1006.8
 30
0.0
 11
367.770247
 21
-1006.8
 31
0.0
  0
LINE
  8
7
 10
445.770243
 20
-1006.8
 30
0.0
 11
523.770243
 21
-1006.8
 31
0.0
  0
ARC
  8
7
 10
515.770243
 20
-993.3
 30
0.0
 40
5.0
 50
270.0
 51
450.0
  0
ARC
  8
7
 10
492.770249
 20
-993.3
 30
0.0
 40
10.0
 50
30.000000
 51
330.0
  0
LINE
  8
7
 10
525.770243
 20
-1004.8
 30
0.0
 11
525.770243
 21
-981.8
 31
0.0
  0
ARC
  8
7
 10
375.770243
 20
-993.3
 30
0.0
 40
5.0
 50
90.0
 51
270.0
  0
ARC
  8
7
 10
398.770247
 20
-993.3
 30
0.0
 40
10.0
 50
210.000000
 51
510.000000
  0
LINE
  8
7
 10
365.770247
 20
-1004.8
 30
0.0
 11
365.770247
 21
-981.8
 31
0.0
  0
POINT
  8
7
 10
390.109994
 20
-998.3
 30
0.0
  0
POINT
  8
7
 10
390.109994
 20
-988.3
 30
0.0
  0
POINT
  8
7
 10
534.487715
 20
-980.7
 30
0.0
  0
POINT
  8
7
 10
519.865499
 20
-990.4
 30
0.0
  0
POINT
  8
7
 10
515.770253
 20
-1002.3
 30
0.0
  0
POINT
  8
7
 10
375.770249
 20
-1002.3
 30
0.0
  0
LINE
  8
7
 10
272.348379
 20
-812.6
 30
0.0
 11
271.819218
 21
-802.5
 31
0.0
  0
LINE
  8
7
 10
272.348379
 20
-812.6
 30
0.0
 11
271.819218
 21
-802.5
 31
0.0
  0
LINE
  8
7
 10
271.091004
 20
-812.3
 30
0.0
 11
270.520382
 21
-801.5
 31
0.0
  0
LINE
  8
7
 10
261.778912
 20
-760.5
 30
0.0
 11
266.770678
 21
-760.5
 31
0.0
  0
ARC
  8
7
 10
265.602606
 20
-764.9
 30
0.0
 40
2.999999
 50
3.000021
 51
90.000022
  0
LINE
  8
7
 10
263.420631
 20
-761.9
 30
0.0
 11
265.602605
 21
-761.9
 31
0.0
  0
ARC
  8
7
 10
263.420630
 20
-764.9
 30
0.0
 40
2.999999
 50
89.999982
 51
176.999983
  0
ARC
  8
7
 10
261.778911
 20
-763.5
 30
0.0
 40
2.999999
 50
89.999984
 51
176.999985
  0
LINE
  8
7
 10
246.441026
 20
-773.5
 30
0.0
 11
247.654410
 21
-773.5
 31
0.0
  0
LINE
  8
7
 10
246.441026
 20
-776.5
 30
0.0
 11
247.654410
 21
-776.5
 31
0.0
  0
LINE
  8
7
 10
246.441026
 20
-773.5
 30
0.0
 11
246.317339
 21
-773.5
 31
0.0
  0
LINE
  8
7
 10
246.317339
 20
-773.5
 30
0.0
 11
246.198405
 21
-773.6
 31
0.0
  0
LINE
  8
7
 10
246.198405
 20
-773.6
 30
0.0
 11
246.088795
 21
-773.8
 31
0.0
  0
LINE
  8
7
 10
246.088795
 20
-773.8
 30
0.0
 11
245.992720
 21
-773.9
 31
0.0
  0
LINE
  8
7
 10
245.992720
 20
-773.9
 30
0.0
 11
245.913874
 21
-774.2
 31
0.0
  0
LINE
  8
7
 10
245.913874
 20
-774.2
 30
0.0
 11
245.855286
 21
-774.4
 31
0.0
  0
LINE
  8
7
 10
245.855286
 20
-774.4
 30
0.0
 11
245.819208
 21
-774.7
 31
0.0
  0
LINE
  8
7
 10
245.819208
 20
-774.7
 30
0.0
 11
245.807026
 21
-775.0
 31
0.0
  0
LINE
  8
7
 10
245.807026
 20
-775.0
 30
0.0
 11
245.819208
 21
-775.3
 31
0.0
  0
LINE
  8
7
 10
245.819208
 20
-775.3
 30
0.0
 11
245.855286
 21
-775.6
 31
0.0
  0
LINE
  8
7
 10
245.855286
 20
-775.6
 30
0.0
 11
245.913874
 21
-775.8
 31
0.0
  0
LINE
  8
7
 10
245.913874
 20
-775.8
 30
0.0
 11
245.992720
 21
-776.1
 31
0.0
  0
LINE
  8
7
 10
245.992720
 20
-776.1
 30
0.0
 11
246.088795
 21
-776.2
 31
0.0
  0
LINE
  8
7
 10
246.088795
 20
-776.2
 30
0.0
 11
246.198405
 21
-776.4
 31
0.0
  0
LINE
  8
7
 10
246.198405
 20
-776.4
 30
0.0
 11
246.317339
 21
-776.5
 31
0.0
  0
LINE
  8
7
 10
246.317339
 20
-776.5
 30
0.0
 11
246.441026
 21
-776.5
 31
0.0
  0
LINE
  8
7
 10
247.166072
 20
-773.5
 30
0.0
 11
247.042385
 21
-773.5
 31
0.0
  0
LINE
  8
7
 10
247.042385
 20
-773.5
 30
0.0
 11
246.923451
 21
-773.6
 31
0.0
  0
LINE
  8
7
 10
246.923451
 20
-773.6
 30
0.0
 11
246.813841
 21
-773.8
 31
0.0
  0
LINE
  8
7
 10
246.813841
 20
-773.8
 30
0.0
 11
246.717767
 21
-773.9
 31
0.0
  0
LINE
  8
7
 10
246.717767
 20
-773.9
 30
0.0
 11
246.638921
 21
-774.2
 31
0.0
  0
LINE
  8
7
 10
246.638921
 20
-774.2
 30
0.0
 11
246.580333
 21
-774.4
 31
0.0
  0
LINE
  8
7
 10
246.580333
 20
-774.4
 30
0.0
 11
246.544254
 21
-774.7
 31
0.0
  0
LINE
  8
7
 10
246.544254
 20
-774.7
 30
0.0
 11
246.532072
 21
-775.0
 31
0.0
  0
LINE
  8
7
 10
246.532072
 20
-775.0
 30
0.0
 11
246.544254
 21
-775.3
 31
0.0
  0
LINE
  8
7
 10
246.544254
 20
-775.3
 30
0.0
 11
246.580333
 21
-775.6
 31
0.0
  0
LINE
  8
7
 10
246.580333
 20
-775.6
 30
0.0
 11
246.638921
 21
-775.8
 31
0.0
  0
LINE
  8
7
 10
246.638921
 20
-775.8
 30
0.0
 11
246.717767
 21
-776.1
 31
0.0
  0
LINE
  8
7
 10
246.717767
 20
-776.1
 30
0.0
 11
246.813841
 21
-776.2
 31
0.0
  0
LINE
  8
7
 10
246.813841
 20
-776.2
 30
0.0
 11
246.923451
 21
-776.4
 31
0.0
  0
LINE
  8
7
 10
246.923451
 20
-776.4
 30
0.0
 11
247.042385
 21
-776.5
 31
0.0
  0
LINE
  8
7
 10
247.042385
 20
-776.5
 30
0.0
 11
247.166072
 21
-776.5
 31
0.0
  0
LINE
  8
7
 10
246.769938
 20
-767.0
 30
0.0
 11
247.494985
 21
-767.3
 31
0.0
  0
ARC
  8
7
 10
246.735490
 20
-770.1
 30
0.0
 40
0.499998
 50
154.999979
 51
215.756737
  0
ARC
  8
7
 10
246.735490
 20
-770.1
 30
0.0
 40
1.299997
 50
154.999988
 51
215.756746
  0
LINE
  8
7
 10
247.494985
 20
-767.3
 30
0.0
 11
246.282338
 21
-769.9
 31
0.0
  0
LINE
  8
7
 10
246.769938
 20
-767.0
 30
0.0
 11
245.557292
 21
-769.6
 31
0.0
  0
ARC
  8
7
 10
239.999995
 20
-775.0
 30
0.0
 40
7.000005
 50
12.373611
 51
35.756745
  0
ARC
  8
7
 10
240.0
 20
-775.0
 30
0.0
 40
1.0
 50
0.0
 51
180.0
  0
ARC
  8
7
 10
240.0
 20
-775.0
 30
0.0
 40
1.0
 50
180.0
 51
360.0
  0
ARC
  8
7
 10
254.669927
 20
-784.5
 30
0.0
 40
3.000001
 50
268.075231
 51
356.999997
  0
ARC
  8
7
 10
255.638806
 20
-785.5
 30
0.0
 40
3.000001
 50
268.075231
 51
356.999997
  0
ARC
  8
7
 10
254.697706
 20
-803.5
 30
0.0
 40
2.999999
 50
269.999974
 51
356.999975
  0
ARC
  8
7
 10
255.339150
 20
-804.5
 30
0.0
 40
2.999999
 50
269.999974
 51
356.999975
  0
LINE
  8
7
 10
258.634695
 20
-785.7
 30
0.0
 11
257.693594
 21
-803.6
 31
0.0
  0
LINE
  8
7
 10
244.175000
 20
-787.5
 30
0.0
 11
246.591163
 21
-787.6
 31
0.0
  0
LINE
  8
7
 10
244.500000
 20
-787.2
 30
0.0
 11
246.458366
 21
-787.2
 31
0.0
  0
ARC
  8
7
 10
246.316412
 20
-781.1
 30
0.0
 40
1.0
 50
135.870996
 51
198.484237
  0
ARC
  8
7
 10
246.316415
 20
-781.1
 30
0.0
 40
1.800004
 50
135.871041
 51
198.484282
  0
LINE
  8
7
 10
245.368001
 20
-781.4
 30
0.0
 11
245.658376
 21
-782.3
 31
0.0
  0
LINE
  8
7
 10
244.609272
 20
-781.7
 30
0.0
 11
244.814860
 21
-782.3
 31
0.0
  0
LINE
  8
7
 10
244.500000
 20
-787.4
 30
0.0
 11
244.500000
 21
-786.1
 31
0.0
  0
LINE
  8
7
 10
247.444263
 20
-787.7
 30
0.0
 11
250.0
 21
-787.7
 31
0.0
  0
LINE
  8
7
 10
250.0
 20
-787.7
 30
0.0
 11
250.0
 21
-788.3
 31
0.0
  0
LINE
  8
7
 10
244.814860
 20
-782.3
 30
0.0
 11
246.785932
 21
-788.2
 31
0.0
  0
LINE
  8
7
 10
245.658376
 20
-782.3
 30
0.0
 11
247.639032
 21
-788.2
 31
0.0
  0
LINE
  8
7
 10
244.175000
 20
-788.1
 30
0.0
 11
244.175000
 21
-787.4
 31
0.0
  0
LINE
  8
7
 10
235.390727
 20
-781.7
 30
0.0
 11
235.185140
 21
-782.3
 31
0.0
  0
LINE
  8
7
 10
235.500000
 20
-787.4
 30
0.0
 11
235.500000
 21
-786.1
 31
0.0
  0
LINE
  8
7
 10
235.825001
 20
-787.8
 30
0.0
 11
235.825001
 21
-787.4
 31
0.0
  0
ARC
  8
7
 10
237.100001
 20
-786.1
 30
0.0
 40
1.600001
 50
106.191472
 51
180.000080
  0
ARC
  8
7
 10
239.999999
 20
-784.1
 30
0.0
 40
2.0
 50
184.780192
 51
355.219808
  0
ARC
  8
7
 10
239.999998
 20
-796.1
 30
0.0
 40
12.000001
 50
73.808654
 51
106.191346
  0
LINE
  8
7
 10
240.407124
 20
-788.0
 30
0.0
 11
240.750553
 21
-787.4
 31
0.0
  0
LINE
  8
7
 10
239.999999
 20
-787.4
 30
0.0
 11
239.670856
 21
-788.0
 31
0.0
  0
LINE
  8
7
 10
235.500000
 20
-787.4
 30
0.0
 11
244.500000
 21
-787.4
 31
0.0
  0
ARC
  8
7
 10
242.900005
 20
-786.1
 30
0.0
 40
1.599995
 50
0.000140
 51
73.808857
  0
LINE
  8
7
 10
247.311466
 20
-787.3
 30
0.0
 11
254.569165
 21
-787.5
 31
0.0
  0
LINE
  8
7
 10
269.613958
 20
-815.8
 30
0.0
 11
249.500000
 21
-817.5
 31
0.0
  0
LINE
  8
7
 10
257.665816
 20
-784.7
 30
0.0
 11
258.783024
 21
-763.3
 31
0.0
  0
LINE
  8
7
 10
257.665816
 20
-784.7
 30
0.0
 11
258.625800
 21
-766.3
 31
0.0
  0
LINE
  8
7
 10
258.335038
 20
-804.7
 30
0.0
 11
260.424743
 21
-764.8
 31
0.0
  0
ARC
  8
7
 10
240.000004
 20
-775.0
 30
0.0
 40
6.999997
 50
315.870987
 51
347.626351
  0
ARC
  8
7
 10
239.999998
 20
-775.0
 30
0.0
 40
7.800002
 50
315.871015
 51
395.756762
  0
ARC
  8
7
 10
240.000005
 20
-775.0
 30
0.0
 40
7.000004
 50
144.243273
 51
167.626408
  0
LINE
  8
7
 10
233.558973
 20
-776.5
 30
0.0
 11
233.682661
 21
-776.5
 31
0.0
  0
LINE
  8
7
 10
233.682661
 20
-776.5
 30
0.0
 11
233.801595
 21
-776.4
 31
0.0
  0
LINE
  8
7
 10
233.801595
 20
-776.4
 30
0.0
 11
233.911205
 21
-776.2
 31
0.0
  0
LINE
  8
7
 10
233.911205
 20
-776.2
 30
0.0
 11
234.007279
 21
-776.1
 31
0.0
  0
LINE
  8
7
 10
234.007279
 20
-776.1
 30
0.0
 11
234.086125
 21
-775.8
 31
0.0
  0
LINE
  8
7
 10
234.086125
 20
-775.8
 30
0.0
 11
234.144713
 21
-775.6
 31
0.0
  0
LINE
  8
7
 10
234.144713
 20
-775.6
 30
0.0
 11
234.180791
 21
-775.3
 31
0.0
  0
LINE
  8
7
 10
234.180791
 20
-775.3
 30
0.0
 11
234.192973
 21
-775.0
 31
0.0
  0
LINE
  8
7
 10
234.192973
 20
-775.0
 30
0.0
 11
234.180791
 21
-774.7
 31
0.0
  0
LINE
  8
7
 10
234.180791
 20
-774.7
 30
0.0
 11
234.144713
 21
-774.4
 31
0.0
  0
LINE
  8
7
 10
234.144713
 20
-774.4
 30
0.0
 11
234.086125
 21
-774.2
 31
0.0
  0
LINE
  8
7
 10
234.086125
 20
-774.2
 30
0.0
 11
234.007279
 21
-773.9
 31
0.0
  0
LINE
  8
7
 10
234.007279
 20
-773.9
 30
0.0
 11
233.911205
 21
-773.8
 31
0.0
  0
LINE
  8
7
 10
233.911205
 20
-773.8
 30
0.0
 11
233.801595
 21
-773.6
 31
0.0
  0
LINE
  8
7
 10
233.801595
 20
-773.6
 30
0.0
 11
233.682661
 21
-773.5
 31
0.0
  0
LINE
  8
7
 10
233.682661
 20
-773.5
 30
0.0
 11
233.558973
 21
-773.5
 31
0.0
  0
LINE
  8
7
 10
232.833927
 20
-776.5
 30
0.0
 11
232.957614
 21
-776.5
 31
0.0
  0
LINE
  8
7
 10
232.957614
 20
-776.5
 30
0.0
 11
233.076548
 21
-776.4
 31
0.0
  0
LINE
  8
7
 10
233.076548
 20
-776.4
 30
0.0
 11
233.186159
 21
-776.2
 31
0.0
  0
LINE
  8
7
 10
233.186159
 20
-776.2
 30
0.0
 11
233.282233
 21
-776.1
 31
0.0
  0
LINE
  8
7
 10
233.282233
 20
-776.1
 30
0.0
 11
233.361079
 21
-775.8
 31
0.0
  0
LINE
  8
7
 10
233.361079
 20
-775.8
 30
0.0
 11
233.419667
 21
-775.6
 31
0.0
  0
LINE
  8
7
 10
233.419667
 20
-775.6
 30
0.0
 11
233.455745
 21
-775.3
 31
0.0
  0
LINE
  8
7
 10
233.455745
 20
-775.3
 30
0.0
 11
233.467927
 21
-775.0
 31
0.0
  0
LINE
  8
7
 10
233.467927
 20
-775.0
 30
0.0
 11
233.455745
 21
-774.7
 31
0.0
  0
LINE
  8
7
 10
233.455745
 20
-774.7
 30
0.0
 11
233.419667
 21
-774.4
 31
0.0
  0
LINE
  8
7
 10
233.419667
 20
-774.4
 30
0.0
 11
233.361079
 21
-774.2
 31
0.0
  0
LINE
  8
7
 10
233.361079
 20
-774.2
 30
0.0
 11
233.282233
 21
-773.9
 31
0.0
  0
LINE
  8
7
 10
233.282233
 20
-773.9
 30
0.0
 11
233.186159
 21
-773.8
 31
0.0
  0
LINE
  8
7
 10
233.186159
 20
-773.8
 30
0.0
 11
233.076548
 21
-773.6
 31
0.0
  0
LINE
  8
7
 10
233.076548
 20
-773.6
 30
0.0
 11
232.957614
 21
-773.5
 31
0.0
  0
LINE
  8
7
 10
232.957614
 20
-773.5
 30
0.0
 11
232.833927
 21
-773.5
 31
0.0
  0
LINE
  8
7
 10
233.558973
 20
-776.5
 30
0.0
 11
232.345589
 21
-776.5
 31
0.0
  0
LINE
  8
7
 10
233.558973
 20
-773.5
 30
0.0
 11
232.345589
 21
-773.5
 31
0.0
  0
LINE
  8
7
 10
233.230061
 20
-767.0
 30
0.0
 11
234.442708
 21
-769.6
 31
0.0
  0
LINE
  8
7
 10
233.230061
 20
-767.0
 30
0.0
 11
232.505015
 21
-767.3
 31
0.0
  0
LINE
  8
7
 10
232.505015
 20
-767.3
 30
0.0
 11
233.717662
 21
-769.9
 31
0.0
  0
ARC
  8
7
 10
233.264509
 20
-770.1
 30
0.0
 40
0.499998
 50
324.243151
 51
384.999909
  0
ARC
  8
7
 10
233.264510
 20
-770.1
 30
0.0
 40
1.299997
 50
324.243211
 51
384.999969
  0
LINE
  8
7
 10
234.631998
 20
-781.4
 30
0.0
 11
234.341623
 21
-782.3
 31
0.0
  0
LINE
  8
7
 10
234.341623
 20
-782.3
 30
0.0
 11
232.530697
 21
-787.7
 31
0.0
  0
LINE
  8
7
 10
230.0
 20
-787.1
 30
0.0
 11
230.0
 21
-787.6
 31
0.0
  0
LINE
  8
7
 10
230.0
 20
-787.1
 30
0.0
 11
232.721139
 21
-787.2
 31
0.0
  0
ARC
  8
7
 10
228.758139
 20
-790.6
 30
0.0
 40
3.0
 50
88.075240
 51
177.000007
  0
ARC
  8
7
 10
227.987787
 20
-789.8
 30
0.0
 40
3.000001
 50
88.075231
 51
176.999997
  0
ARC
  8
7
 10
221.344798
 20
-801.9
 30
0.0
 40
2.999999
 50
269.999974
 51
356.999975
  0
ARC
  8
7
 10
222.076086
 20
-803.5
 30
0.0
 40
2.999999
 50
269.999984
 51
356.999985
  0
LINE
  8
7
 10
224.991898
 20
-789.7
 30
0.0
 11
224.340686
 21
-802.1
 31
0.0
  0
LINE
  8
7
 10
225.071973
 20
-803.6
 30
0.0
 11
225.762250
 21
-790.4
 31
0.0
  0
ARC
  8
7
 10
204.516537
 20
-782.8
 30
0.0
 40
3.0
 50
182.999995
 51
268.075228
  0
ARC
  8
7
 10
204.516536
 20
-782.8
 30
0.0
 40
3.199999
 50
203.364126
 51
268.075225
  0
ARC
  8
7
 10
204.213180
 20
-804.5
 30
0.0
 40
2.999999
 50
183.000025
 51
270.000026
  0
ARC
  8
7
 10
205.518233
 20
-801.9
 30
0.0
 40
2.999999
 50
183.000025
 51
270.000026
  0
LINE
  8
7
 10
202.522345
 20
-802.1
 30
0.0
 11
201.651403
 21
-785.5
 31
0.0
  0
LINE
  8
7
 10
204.415775
 20
-785.8
 30
0.0
 11
232.850985
 21
-786.8
 31
0.0
  0
LINE
  8
7
 10
227.931602
 20
-786.8
 30
0.0
 11
204.426773
 21
-786.0
 31
0.0
  0
LINE
  8
7
 10
205.518234
 20
-804.9
 30
0.0
 11
221.344797
 21
-804.9
 31
0.0
  0
LINE
  8
7
 10
201.678149
 20
-786.0
 30
0.0
 11
200.491771
 21
-763.3
 31
0.0
  0
LINE
  8
7
 10
201.678149
 20
-786.0
 30
0.0
 11
200.648995
 21
-766.3
 31
0.0
  0
ARC
  8
7
 10
240.000002
 20
-775.0
 30
0.0
 40
7.800002
 50
144.243244
 51
224.128991
  0
LINE
  8
7
 10
233.555284
 20
-787.2
 30
0.0
 11
235.500000
 21
-787.3
 31
0.0
  0
LINE
  8
7
 10
233.685131
 20
-786.8
 30
0.0
 11
235.500000
 21
-786.9
 31
0.0
  0
LINE
  8
7
 10
228.858900
 20
-787.6
 30
0.0
 11
255.538044
 21
-788.5
 31
0.0
  0
LINE
  8
7
 10
222.076085
 20
-806.5
 30
0.0
 11
254.697705
 21
-806.5
 31
0.0
  0
LINE
  8
7
 10
255.339149
 20
-807.5
 30
0.0
 11
204.213181
 21
-807.5
 31
0.0
  0
ARC
  8
7
 10
239.999996
 20
-775.0
 30
0.0
 40
6.999996
 50
192.373636
 51
224.129000
  0
ARC
  8
7
 10
233.683588
 20
-781.1
 30
0.0
 40
1.0
 50
341.515709
 51
404.128950
  0
ARC
  8
7
 10
233.683584
 20
-781.1
 30
0.0
 40
1.800004
 50
341.515718
 51
404.128959
  0
LINE
  8
7
 10
235.185140
 20
-782.3
 30
0.0
 11
233.364842
 21
-787.8
 31
0.0
  0
ARC
  8
7
 10
239.999999
 20
-775.0
 30
0.0
 40
7.0
 50
35.756758
 51
144.243242
  0
ARC
  8
7
 10
240.0
 20
-775.0
 30
0.0
 40
7.0
 50
192.373625
 51
347.626375
  0
LINE
  8
7
 10
270.681555
 20
-804.5
 30
0.0
 11
268.598494
 21
-764.8
 31
0.0
  0
LINE
  8
7
 10
271.873169
 20
-803.5
 30
0.0
 11
269.923790
 21
-766.3
 31
0.0
  0
ARC
  8
7
 10
266.770679
 20
-763.5
 30
0.0
 40
2.999999
 50
3.000021
 51
90.000022
  0
LINE
  8
7
 10
271.426459
 20
-795.0
 30
0.0
 11
269.766567
 21
-763.3
 31
0.0
  0
ARC
  8
7
 10
269.352491
 20
-812.8
 30
0.0
 40
2.999999
 50
274.999982
 51
362.999982
  0
ARC
  8
7
 10
269.352491
 20
-812.8
 30
0.0
 40
2.999999
 50
274.999982
 51
362.999982
  0
ARC
  8
7
 10
268.095115
 20
-812.5
 30
0.0
 40
3.000001
 50
270.000019
 51
363.000020
  0
LINE
  8
7
 10
271.500000
 20
-829.5
 30
0.0
 11
271.500000
 21
-827.2
 31
0.0
  0
LINE
  8
7
 10
271.500000
 20
-883.0
 30
0.0
 11
271.500000
 21
-885.3
 31
0.0
  0
LINE
  8
7
 10
271.500000
 20
-883.0
 30
0.0
 11
271.500000
 21
-829.5
 31
0.0
  0
LINE
  8
7
 10
266.0
 20
-825.2
 30
0.0
 11
266.0
 21
-823.8
 31
0.0
  0
LINE
  8
7
 10
265.659000
 20
-825.2
 30
0.0
 11
265.659000
 21
-823.8
 31
0.0
  0
ARC
  8
7
 10
269.0
 20
-825.2
 30
0.0
 40
2.0
 50
180.0
 51
270.0
  0
LINE
  8
7
 10
261.341000
 20
-825.2
 30
0.0
 11
261.341000
 21
-823.8
 31
0.0
  0
ARC
  8
7
 10
258.0
 20
-825.2
 30
0.0
 40
2.0
 50
270.0
 51
360.0
  0
LINE
  8
7
 10
255.500000
 20
-829.5
 30
0.0
 11
255.500000
 21
-827.2
 31
0.0
  0
LINE
  8
7
 10
261.0
 20
-823.8
 30
0.0
 11
266.0
 21
-823.8
 31
0.0
  0
LINE
  8
7
 10
261.0
 20
-825.2
 30
0.0
 11
261.0
 21
-823.8
 31
0.0
  0
LINE
  8
7
 10
267.0
 20
-825.2
 30
0.0
 11
260.0
 21
-825.2
 31
0.0
  0
LINE
  8
7
 10
249.500000
 20
-823.0
 30
0.0
 11
249.500000
 21
-829.5
 31
0.0
  0
LINE
  8
7
 10
269.0
 20
-885.8
 30
0.0
 11
269.0
 21
-888.9
 31
0.0
  0
ARC
  8
7
 10
268.500002
 20
-888.9
 30
0.0
 40
0.499997
 50
288.793057
 51
359.999798
  0
LINE
  8
7
 10
268.900000
 20
-887.0
 30
0.0
 11
268.900000
 21
-885.8
 31
0.0
  0
ARC
  8
7
 10
263.500000
 20
-890.3
 30
0.0
 40
2.0
 50
4.780192
 51
175.219808
  0
LINE
  8
7
 10
258.139754
 20
-893.5
 30
0.0
 11
257.978677
 21
-893.1
 31
0.0
  0
LINE
  8
7
 10
258.100000
 20
-887.0
 30
0.0
 11
258.100000
 21
-885.8
 31
0.0
  0
LINE
  8
7
 10
255.192526
 20
-885.3
 30
0.0
 11
255.192526
 21
-885.8
 31
0.0
  0
LINE
  8
7
 10
256.531966
 20
-885.8
 30
0.0
 11
255.192526
 21
-885.8
 31
0.0
  0
LINE
  8
7
 10
256.150000
 20
-888.0
 30
0.0
 11
258.100000
 21
-886.0
 31
0.0
  0
LINE
  8
7
 10
256.150000
 20
-902.8
 30
0.0
 11
253.850000
 21
-902.8
 31
0.0
  0
POINT
  8
7
 10
263.500000
 20
-887.0
 30
0.0
  0
LINE
  8
7
 10
268.0
 20
-887.0
 30
0.0
 11
259.0
 21
-887.0
 31
0.0
  0
LINE
  8
7
 10
268.0
 20
-887.0
 30
0.0
 11
268.0
 21
-888.3
 31
0.0
  0
LINE
  8
7
 10
259.0
 20
-887.0
 30
0.0
 11
259.0
 21
-888.3
 31
0.0
  0
LINE
  8
7
 10
268.661077
 20
-889.4
 30
0.0
 11
257.978677
 21
-893.1
 31
0.0
  0
LINE
  8
7
 10
268.822154
 20
-889.9
 30
0.0
 11
258.139754
 21
-893.5
 31
0.0
  0
LINE
  8
7
 10
268.900000
 20
-887.0
 30
0.0
 11
258.100000
 21
-887.0
 31
0.0
  0
LINE
  8
7
 10
269.0
 20
-885.8
 30
0.0
 11
256.531966
 21
-885.8
 31
0.0
  0
LINE
  8
7
 10
269.500000
 20
-885.3
 30
0.0
 11
255.192526
 21
-885.3
 31
0.0
  0
ARC
  8
7
 10
257.650000
 20
-886.8
 30
0.0
 40
3.800000
 50
90.0
 51
180.0
  0
ARC
  8
7
 10
257.650000
 20
-886.8
 30
0.0
 40
1.500000
 50
90.0
 51
180.0
  0
LINE
  8
7
 10
249.500000
 20
-883.0
 30
0.0
 11
249.500000
 21
-886.5
 31
0.0
  0
LINE
  8
7
 10
249.500000
 20
-829.5
 30
0.0
 11
249.500000
 21
-883.0
 31
0.0
  0
ARC
  8
7
 10
216.174779
 20
-827.1
 30
0.0
 40
3.0
 50
315.000013
 51
412.739398
  0
LINE
  8
7
 10
217.992640
 20
-829.5
 30
0.0
 11
218.296100
 21
-829.2
 31
0.0
  0
ARC
  8
7
 10
210.764718
 20
-824.0
 30
0.0
 40
3.000001
 50
270.000001
 51
315.000002
  0
LINE
  8
7
 10
212.500000
 20
-829.5
 30
0.0
 11
212.500000
 21
-827.0
 31
0.0
  0
LINE
  8
7
 10
212.886039
 20
-826.1
 30
0.0
 11
214.053459
 21
-825.0
 31
0.0
  0
ARC
  8
7
 10
214.981148
 20
-828.3
 30
0.0
 40
3.0
 50
45.0
 51
135.0
  0
ARC
  8
7
 10
213.250000
 20
-830.0
 30
0.0
 40
3.0
 50
9.594069
 51
90.000001
  0
ARC
  8
7
 10
216.174779
 20
-827.1
 30
0.0
 40
3.0
 50
52.739397
 51
135.000012
  0
ARC
  8
7
 10
214.981147
 20
-828.3
 30
0.0
 40
3.000001
 50
335.771117
 51
405.000001
  0
LINE
  8
7
 10
217.992640
 20
-883.0
 30
0.0
 11
218.296100
 21
-883.3
 31
0.0
  0
LINE
  8
7
 10
232.631000
 20
-902.5
 30
0.0
 11
234.049008
 21
-898.3
 31
0.0
  0
ARC
  8
7
 10
231.231345
 20
-901.0
 30
0.0
 40
0.300000
 50
202.415569
 51
341.349883
  0
LINE
  8
7
 10
229.932051
 20
-902.6
 30
0.0
 11
227.909674
 21
-897.7
 31
0.0
  0
LINE
  8
7
 10
227.909674
 20
-897.7
 30
0.0
 11
227.0
 21
-898.3
 31
0.0
  0
LINE
  8
7
 10
227.0
 20
-898.3
 30
0.0
 11
227.0
 21
-896.5
 31
0.0
  0
ARC
  8
7
 10
231.264905
 20
-902.1
 30
0.0
 40
1.441800
 50
202.416231
 51
341.350545
  0
LINE
  8
7
 10
231.515591
 20
-901.1
 30
0.0
 11
233.416873
 21
-895.5
 31
0.0
  0
LINE
  8
7
 10
230.954012
 20
-901.2
 30
0.0
 11
228.622606
 21
-895.5
 31
0.0
  0
LINE
  8
7
 10
228.622606
 20
-895.5
 30
0.0
 11
227.0
 21
-896.5
 31
0.0
  0
LINE
  8
7
 10
221.0
 20
-903.5
 30
0.0
 11
221.0
 21
-893.5
 31
0.0
  0
ARC
  8
7
 10
216.174779
 20
-885.4
 30
0.0
 40
3.0
 50
307.260602
 51
404.999987
  0
ARC
  8
7
 10
210.764718
 20
-888.5
 30
0.0
 40
3.000001
 50
44.999998
 51
89.999999
  0
ARC
  8
7
 10
214.981148
 20
-884.2
 30
0.0
 40
3.0
 50
225.0
 51
315.0
  0
LINE
  8
7
 10
212.886039
 20
-886.4
 30
0.0
 11
214.053459
 21
-887.5
 31
0.0
  0
LINE
  8
7
 10
207.807972
 20
-901.3
 30
0.0
 11
212.192027
 21
-905.7
 31
0.0
  0
LINE
  8
7
 10
207.807965
 20
-905.7
 30
0.0
 11
212.192034
 21
-901.3
 31
0.0
  0
ARC
  8
7
 10
213.250000
 20
-882.5
 30
0.0
 40
3.0
 50
269.999999
 51
350.405931
  0
LINE
  8
7
 10
212.500000
 20
-883.0
 30
0.0
 11
212.500000
 21
-885.5
 31
0.0
  0
ARC
  8
7
 10
214.981147
 20
-884.2
 30
0.0
 40
3.000001
 50
314.999999
 51
384.228883
  0
ARC
  8
7
 10
216.174779
 20
-885.4
 30
0.0
 40
3.0
 50
224.999988
 51
307.260603
  0
ARC
  8
7
 10
216.0
 20
-893.5
 30
0.0
 40
5.0
 50
0.0
 51
90.0
  0
LINE
  8
7
 10
218.851774
 20
-891.4
 30
0.0
 11
215.919432
 21
-895.4
 31
0.0
  0
LINE
  8
7
 10
233.416873
 20
-895.5
 30
0.0
 11
235.0
 21
-897.1
 31
0.0
  0
LINE
  8
7
 10
234.049008
 20
-898.3
 30
0.0
 11
235.0
 21
-899.3
 31
0.0
  0
LINE
  8
7
 10
235.0
 20
-897.1
 30
0.0
 11
235.0
 21
-899.3
 31
0.0
  0
LINE
  8
7
 10
235.0
 20
-876.3
 30
0.0
 11
235.0
 21
-836.3
 31
0.0
  0
LINE
  8
7
 10
227.0
 20
-898.2
 30
0.0
 11
227.041666
 21
-898.2
 31
0.0
  0
LINE
  8
7
 10
228.131272
 20
-898.2
 30
0.0
 11
229.753880
 21
-898.2
 31
0.0
  0
LINE
  8
7
 10
232.491286
 20
-898.2
 30
0.0
 11
235.0
 21
-898.2
 31
0.0
  0
LINE
  8
7
 10
228.213772
 20
-898.4
 30
0.0
 11
229.836380
 21
-898.4
 31
0.0
  0
LINE
  8
7
 10
232.423786
 20
-898.4
 30
0.0
 11
234.006912
 21
-898.4
 31
0.0
  0
LINE
  8
7
 10
234.169198
 20
-898.4
 30
0.0
 11
235.0
 21
-898.4
 31
0.0
  0
LINE
  8
7
 10
228.296272
 20
-898.6
 30
0.0
 11
229.918880
 21
-898.6
 31
0.0
  0
LINE
  8
7
 10
232.356286
 20
-898.6
 30
0.0
 11
233.939412
 21
-898.6
 31
0.0
  0
LINE
  8
7
 10
234.361920
 20
-898.6
 30
0.0
 11
235.0
 21
-898.6
 31
0.0
  0
LINE
  8
7
 10
228.378772
 20
-898.8
 30
0.0
 11
230.001380
 21
-898.8
 31
0.0
  0
LINE
  8
7
 10
232.288786
 20
-898.8
 30
0.0
 11
233.871912
 21
-898.8
 31
0.0
  0
LINE
  8
7
 10
234.554642
 20
-898.8
 30
0.0
 11
235.0
 21
-898.8
 31
0.0
  0
LINE
  8
7
 10
228.461272
 20
-899.0
 30
0.0
 11
230.083880
 21
-899.0
 31
0.0
  0
LINE
  8
7
 10
232.221286
 20
-899.0
 30
0.0
 11
233.804412
 21
-899.0
 31
0.0
  0
LINE
  8
7
 10
234.747366
 20
-899.0
 30
0.0
 11
235.0
 21
-899.0
 31
0.0
  0
LINE
  8
7
 10
228.543772
 20
-899.2
 30
0.0
 11
230.166380
 21
-899.2
 31
0.0
  0
LINE
  8
7
 10
232.153786
 20
-899.2
 30
0.0
 11
233.736912
 21
-899.2
 31
0.0
  0
LINE
  8
7
 10
234.940088
 20
-899.2
 30
0.0
 11
235.0
 21
-899.2
 31
0.0
  0
LINE
  8
7
 10
228.626272
 20
-899.4
 30
0.0
 11
230.248880
 21
-899.4
 31
0.0
  0
LINE
  8
7
 10
232.086286
 20
-899.4
 30
0.0
 11
233.669412
 21
-899.4
 31
0.0
  0
LINE
  8
7
 10
228.708772
 20
-899.6
 30
0.0
 11
230.331380
 21
-899.6
 31
0.0
  0
LINE
  8
7
 10
232.018786
 20
-899.6
 30
0.0
 11
233.601912
 21
-899.6
 31
0.0
  0
LINE
  8
7
 10
228.791272
 20
-899.8
 30
0.0
 11
230.413880
 21
-899.8
 31
0.0
  0
LINE
  8
7
 10
231.951286
 20
-899.8
 30
0.0
 11
233.534412
 21
-899.8
 31
0.0
  0
LINE
  8
7
 10
228.873772
 20
-900.0
 30
0.0
 11
230.496380
 21
-900.0
 31
0.0
  0
LINE
  8
7
 10
231.883786
 20
-900.0
 30
0.0
 11
233.466912
 21
-900.0
 31
0.0
  0
LINE
  8
7
 10
228.956272
 20
-900.2
 30
0.0
 11
230.578880
 21
-900.2
 31
0.0
  0
LINE
  8
7
 10
231.816286
 20
-900.2
 30
0.0
 11
233.399412
 21
-900.2
 31
0.0
  0
LINE
  8
7
 10
229.038772
 20
-900.4
 30
0.0
 11
230.661380
 21
-900.4
 31
0.0
  0
LINE
  8
7
 10
231.748786
 20
-900.4
 30
0.0
 11
233.331912
 21
-900.4
 31
0.0
  0
LINE
  8
7
 10
229.121272
 20
-900.6
 30
0.0
 11
230.743880
 21
-900.6
 31
0.0
  0
LINE
  8
7
 10
231.681286
 20
-900.6
 30
0.0
 11
233.264412
 21
-900.6
 31
0.0
  0
LINE
  8
7
 10
229.203772
 20
-900.8
 30
0.0
 11
230.826380
 21
-900.8
 31
0.0
  0
LINE
  8
7
 10
231.613786
 20
-900.8
 30
0.0
 11
233.196912
 21
-900.8
 31
0.0
  0
LINE
  8
7
 10
229.286272
 20
-901.0
 30
0.0
 11
230.908880
 21
-901.0
 31
0.0
  0
LINE
  8
7
 10
231.546286
 20
-901.0
 30
0.0
 11
233.129412
 21
-901.0
 31
0.0
  0
LINE
  8
7
 10
229.368772
 20
-901.2
 30
0.0
 11
231.015282
 21
-901.2
 31
0.0
  0
LINE
  8
7
 10
231.445650
 20
-901.2
 30
0.0
 11
233.061912
 21
-901.2
 31
0.0
  0
LINE
  8
7
 10
229.451272
 20
-901.4
 30
0.0
 11
232.994412
 21
-901.4
 31
0.0
  0
LINE
  8
7
 10
229.533772
 20
-901.6
 30
0.0
 11
232.926912
 21
-901.6
 31
0.0
  0
LINE
  8
7
 10
229.616272
 20
-901.8
 30
0.0
 11
232.859412
 21
-901.8
 31
0.0
  0
LINE
  8
7
 10
229.698772
 20
-902.0
 30
0.0
 11
232.791912
 21
-902.0
 31
0.0
  0
LINE
  8
7
 10
229.781272
 20
-902.2
 30
0.0
 11
232.724412
 21
-902.2
 31
0.0
  0
LINE
  8
7
 10
229.863772
 20
-902.4
 30
0.0
 11
232.656912
 21
-902.4
 31
0.0
  0
LINE
  8
7
 10
229.955300
 20
-902.6
 30
0.0
 11
232.559204
 21
-902.6
 31
0.0
  0
LINE
  8
7
 10
230.090172
 20
-902.8
 30
0.0
 11
232.442672
 21
-902.8
 31
0.0
  0
LINE
  8
7
 10
230.225044
 20
-903.0
 30
0.0
 11
232.308460
 21
-903.0
 31
0.0
  0
LINE
  8
7
 10
230.495132
 20
-903.2
 30
0.0
 11
232.039324
 21
-903.2
 31
0.0
  0
LINE
  8
7
 10
230.980152
 20
-903.4
 30
0.0
 11
231.549340
 21
-903.4
 31
0.0
  0
LINE
  8
7
 10
227.0
 20
-898.0
 30
0.0
 11
227.364820
 21
-898.0
 31
0.0
  0
LINE
  8
7
 10
228.048772
 20
-898.0
 30
0.0
 11
229.671380
 21
-898.0
 31
0.0
  0
LINE
  8
7
 10
232.558786
 20
-898.0
 30
0.0
 11
235.0
 21
-898.0
 31
0.0
  0
LINE
  8
7
 10
227.0
 20
-897.8
 30
0.0
 11
227.687976
 21
-897.8
 31
0.0
  0
LINE
  8
7
 10
227.966272
 20
-897.8
 30
0.0
 11
229.588880
 21
-897.8
 31
0.0
  0
LINE
  8
7
 10
232.626286
 20
-897.8
 30
0.0
 11
235.0
 21
-897.8
 31
0.0
  0
LINE
  8
7
 10
227.0
 20
-897.6
 30
0.0
 11
229.506380
 21
-897.6
 31
0.0
  0
LINE
  8
7
 10
232.693786
 20
-897.6
 30
0.0
 11
235.0
 21
-897.6
 31
0.0
  0
LINE
  8
7
 10
227.0
 20
-897.4
 30
0.0
 11
229.423880
 21
-897.4
 31
0.0
  0
LINE
  8
7
 10
232.761286
 20
-897.4
 30
0.0
 11
235.0
 21
-897.4
 31
0.0
  0
LINE
  8
7
 10
227.0
 20
-897.2
 30
0.0
 11
229.341380
 21
-897.2
 31
0.0
  0
LINE
  8
7
 10
232.828786
 20
-897.2
 30
0.0
 11
235.0
 21
-897.2
 31
0.0
  0
LINE
  8
7
 10
227.0
 20
-897.0
 30
0.0
 11
229.258880
 21
-897.0
 31
0.0
  0
LINE
  8
7
 10
232.896286
 20
-897.0
 30
0.0
 11
234.903224
 21
-897.0
 31
0.0
  0
LINE
  8
7
 10
227.0
 20
-896.8
 30
0.0
 11
229.176380
 21
-896.8
 31
0.0
  0
LINE
  8
7
 10
232.963786
 20
-896.8
 30
0.0
 11
234.710502
 21
-896.8
 31
0.0
  0
LINE
  8
7
 10
227.0
 20
-896.6
 30
0.0
 11
229.093880
 21
-896.6
 31
0.0
  0
LINE
  8
7
 10
233.031286
 20
-896.6
 30
0.0
 11
234.517780
 21
-896.6
 31
0.0
  0
LINE
  8
7
 10
227.099772
 20
-896.4
 30
0.0
 11
229.011380
 21
-896.4
 31
0.0
  0
LINE
  8
7
 10
233.098786
 20
-896.4
 30
0.0
 11
234.325058
 21
-896.4
 31
0.0
  0
LINE
  8
7
 10
227.422926
 20
-896.2
 30
0.0
 11
228.928880
 21
-896.2
 31
0.0
  0
LINE
  8
7
 10
233.166286
 20
-896.2
 30
0.0
 11
234.132336
 21
-896.2
 31
0.0
  0
LINE
  8
7
 10
227.746082
 20
-896.0
 30
0.0
 11
228.846380
 21
-896.0
 31
0.0
  0
LINE
  8
7
 10
233.233786
 20
-896.0
 30
0.0
 11
233.939614
 21
-896.0
 31
0.0
  0
LINE
  8
7
 10
228.069236
 20
-895.8
 30
0.0
 11
228.763880
 21
-895.8
 31
0.0
  0
LINE
  8
7
 10
233.301286
 20
-895.8
 30
0.0
 11
233.746892
 21
-895.8
 31
0.0
  0
LINE
  8
7
 10
228.392390
 20
-895.6
 30
0.0
 11
228.681380
 21
-895.6
 31
0.0
  0
LINE
  8
7
 10
233.368786
 20
-895.6
 30
0.0
 11
233.554170
 21
-895.6
 31
0.0
  0
LINE
  8
7
 10
245.350000
 20
-930.3
 30
0.0
 11
245.350000
 21
-928.0
 31
0.0
  0
LINE
  8
7
 10
235.350000
 20
-930.3
 30
0.0
 11
235.350000
 21
-928.0
 31
0.0
  0
LINE
  8
7
 10
253.850000
 20
-925.3
 30
0.0
 11
251.197309
 21
-928.0
 31
0.0
  0
ARC
  8
7
 10
252.350000
 20
-926.5
 30
0.0
 40
3.800000
 50
270.0
 51
360.0
  0
ARC
  8
7
 10
252.350000
 20
-926.5
 30
0.0
 40
1.500000
 50
270.0
 51
360.0
  0
LINE
  8
7
 10
225.0
 20
-922.0
 30
0.0
 11
225.0
 21
-924.5
 31
0.0
  0
ARC
  8
7
 10
228.0
 20
-922.0
 30
0.0
 40
3.0
 50
110.809591
 51
180.000017
  0
LINE
  8
7
 10
226.850000
 20
-930.3
 30
0.0
 11
226.850000
 21
-928.0
 31
0.0
  0
LINE
  8
7
 10
226.850000
 20
-928.0
 30
0.0
 11
252.350000
 21
-928.0
 31
0.0
  0
LINE
  8
7
 10
226.850000
 20
-930.3
 30
0.0
 11
252.350000
 21
-930.3
 31
0.0
  0
ARC
  8
7
 10
214.500000
 20
-886.5
 30
0.0
 40
35.0
 50
270.0
 51
360.0
  0
ARC
  8
7
 10
210.0
 20
-903.5
 30
0.0
 40
9.0
 50
0.0
 51
180.0
  0
ARC
  8
7
 10
210.0
 20
-903.5
 30
0.0
 40
9.0
 50
180.0
 51
360.0
  0
ARC
  8
7
 10
210.0
 20
-903.5
 30
0.0
 40
11.0
 50
270.0
 51
360.0
  0
POINT
  8
7
 10
210.0
 20
-903.5
 30
0.0
  0
LINE
  8
7
 10
205.000001
 20
-900.6
 30
0.0
 11
210.0
 21
-897.8
 31
0.0
  0
LINE
  8
7
 10
210.0
 20
-897.8
 30
0.0
 11
214.999999
 21
-900.6
 31
0.0
  0
LINE
  8
7
 10
215.0
 20
-900.6
 30
0.0
 11
215.0
 21
-906.4
 31
0.0
  0
LINE
  8
7
 10
214.999999
 20
-906.4
 30
0.0
 11
210.0
 21
-909.2
 31
0.0
  0
LINE
  8
7
 10
210.0
 20
-909.2
 30
0.0
 11
205.000001
 21
-906.4
 31
0.0
  0
LINE
  8
7
 10
205.0
 20
-906.4
 30
0.0
 11
205.0
 21
-900.6
 31
0.0
  0
CIRCLE
  8
7
 10
210.0
 20
-903.5
 30
0.0
 40
5.0
  0
CIRCLE
  8
7
 10
210.0
 20
-903.5
 30
0.0
 40
6.100000
  0
LINE
  8
7
 10
256.150000
 20
-926.5
 30
0.0
 11
256.150000
 21
-886.8
 31
0.0
  0
LINE
  8
7
 10
253.850000
 20
-886.8
 30
0.0
 11
253.850000
 21
-926.5
 31
0.0
  0
LINE
  8
7
 10
269.500000
 20
-885.3
 30
0.0
 11
269.500000
 21
-888.9
 31
0.0
  0
ARC
  8
7
 10
268.499998
 20
-888.9
 30
0.0
 40
1.000002
 50
288.793340
 51
360.000080
  0
LINE
  8
7
 10
271.500000
 20
-885.3
 30
0.0
 11
257.650000
 21
-885.3
 31
0.0
  0
LINE
  8
7
 10
255.500000
 20
-827.2
 30
0.0
 11
271.500000
 21
-827.2
 31
0.0
  0
LINE
  8
7
 10
235.0
 20
-836.7
 30
0.0
 11
271.500000
 21
-836.7
 31
0.0
  0
LINE
  8
7
 10
235.0
 20
-875.9
 30
0.0
 11
271.500000
 21
-875.9
 31
0.0
  0
LINE
  8
7
 10
235.0
 20
-837.5
 30
0.0
 11
271.500000
 21
-837.5
 31
0.0
  0
LINE
  8
7
 10
235.0
 20
-838.3
 30
0.0
 11
271.500000
 21
-838.3
 31
0.0
  0
LINE
  8
7
 10
235.0
 20
-839.1
 30
0.0
 11
271.500000
 21
-839.1
 31
0.0
  0
LINE
  8
7
 10
235.0
 20
-839.9
 30
0.0
 11
271.500000
 21
-839.9
 31
0.0
  0
LINE
  8
7
 10
235.0
 20
-840.7
 30
0.0
 11
271.500000
 21
-840.7
 31
0.0
  0
LINE
  8
7
 10
235.0
 20
-841.5
 30
0.0
 11
271.500000
 21
-841.5
 31
0.0
  0
LINE
  8
7
 10
235.0
 20
-842.3
 30
0.0
 11
271.500000
 21
-842.3
 31
0.0
  0
LINE
  8
7
 10
235.0
 20
-843.1
 30
0.0
 11
271.500000
 21
-843.1
 31
0.0
  0
LINE
  8
7
 10
235.0
 20
-843.9
 30
0.0
 11
271.500000
 21
-843.9
 31
0.0
  0
LINE
  8
7
 10
235.0
 20
-844.7
 30
0.0
 11
271.500000
 21
-844.7
 31
0.0
  0
LINE
  8
7
 10
235.0
 20
-845.5
 30
0.0
 11
271.500000
 21
-845.5
 31
0.0
  0
LINE
  8
7
 10
235.0
 20
-846.3
 30
0.0
 11
271.500000
 21
-846.3
 31
0.0
  0
LINE
  8
7
 10
235.0
 20
-847.1
 30
0.0
 11
271.500000
 21
-847.1
 31
0.0
  0
LINE
  8
7
 10
235.0
 20
-847.9
 30
0.0
 11
271.500000
 21
-847.9
 31
0.0
  0
LINE
  8
7
 10
235.0
 20
-848.7
 30
0.0
 11
271.500000
 21
-848.7
 31
0.0
  0
LINE
  8
7
 10
235.0
 20
-849.5
 30
0.0
 11
271.500000
 21
-849.5
 31
0.0
  0
LINE
  8
7
 10
235.0
 20
-850.3
 30
0.0
 11
271.500000
 21
-850.3
 31
0.0
  0
LINE
  8
7
 10
235.0
 20
-851.1
 30
0.0
 11
271.500000
 21
-851.1
 31
0.0
  0
LINE
  8
7
 10
235.0
 20
-851.9
 30
0.0
 11
271.500000
 21
-851.9
 31
0.0
  0
LINE
  8
7
 10
235.0
 20
-852.7
 30
0.0
 11
271.500000
 21
-852.7
 31
0.0
  0
LINE
  8
7
 10
235.0
 20
-853.5
 30
0.0
 11
271.500000
 21
-853.5
 31
0.0
  0
LINE
  8
7
 10
235.0
 20
-854.3
 30
0.0
 11
271.500000
 21
-854.3
 31
0.0
  0
LINE
  8
7
 10
235.0
 20
-855.1
 30
0.0
 11
271.500000
 21
-855.1
 31
0.0
  0
LINE
  8
7
 10
235.0
 20
-855.9
 30
0.0
 11
271.500000
 21
-855.9
 31
0.0
  0
LINE
  8
7
 10
235.0
 20
-856.7
 30
0.0
 11
271.500000
 21
-856.7
 31
0.0
  0
LINE
  8
7
 10
235.0
 20
-857.5
 30
0.0
 11
271.500000
 21
-857.5
 31
0.0
  0
LINE
  8
7
 10
235.0
 20
-858.3
 30
0.0
 11
271.500000
 21
-858.3
 31
0.0
  0
LINE
  8
7
 10
235.0
 20
-859.1
 30
0.0
 11
271.500000
 21
-859.1
 31
0.0
  0
LINE
  8
7
 10
235.0
 20
-859.9
 30
0.0
 11
271.500000
 21
-859.9
 31
0.0
  0
LINE
  8
7
 10
235.0
 20
-860.7
 30
0.0
 11
271.500000
 21
-860.7
 31
0.0
  0
LINE
  8
7
 10
235.0
 20
-861.5
 30
0.0
 11
271.500000
 21
-861.5
 31
0.0
  0
LINE
  8
7
 10
235.0
 20
-862.3
 30
0.0
 11
271.500000
 21
-862.3
 31
0.0
  0
LINE
  8
7
 10
235.0
 20
-863.1
 30
0.0
 11
271.500000
 21
-863.1
 31
0.0
  0
LINE
  8
7
 10
235.0
 20
-863.9
 30
0.0
 11
271.500000
 21
-863.9
 31
0.0
  0
LINE
  8
7
 10
235.0
 20
-864.7
 30
0.0
 11
271.500000
 21
-864.7
 31
0.0
  0
LINE
  8
7
 10
235.0
 20
-865.5
 30
0.0
 11
271.500000
 21
-865.5
 31
0.0
  0
LINE
  8
7
 10
235.0
 20
-866.3
 30
0.0
 11
271.500000
 21
-866.3
 31
0.0
  0
LINE
  8
7
 10
235.0
 20
-867.1
 30
0.0
 11
271.500000
 21
-867.1
 31
0.0
  0
LINE
  8
7
 10
235.0
 20
-867.9
 30
0.0
 11
271.500000
 21
-867.9
 31
0.0
  0
LINE
  8
7
 10
235.0
 20
-868.7
 30
0.0
 11
271.500000
 21
-868.7
 31
0.0
  0
LINE
  8
7
 10
235.0
 20
-869.5
 30
0.0
 11
271.500000
 21
-869.5
 31
0.0
  0
LINE
  8
7
 10
235.0
 20
-870.3
 30
0.0
 11
271.500000
 21
-870.3
 31
0.0
  0
LINE
  8
7
 10
235.0
 20
-871.1
 30
0.0
 11
271.500000
 21
-871.1
 31
0.0
  0
LINE
  8
7
 10
235.0
 20
-871.9
 30
0.0
 11
271.500000
 21
-871.9
 31
0.0
  0
LINE
  8
7
 10
235.0
 20
-872.7
 30
0.0
 11
271.500000
 21
-872.7
 31
0.0
  0
LINE
  8
7
 10
235.0
 20
-873.5
 30
0.0
 11
271.500000
 21
-873.5
 31
0.0
  0
LINE
  8
7
 10
235.0
 20
-874.3
 30
0.0
 11
271.500000
 21
-874.3
 31
0.0
  0
LINE
  8
7
 10
235.0
 20
-875.1
 30
0.0
 11
271.500000
 21
-875.1
 31
0.0
  0
ARC
  8
7
 10
255.499995
 20
-823.0
 30
0.0
 40
5.999995
 50
94.999964
 51
179.999964
  0
POINT
  8
7
 10
252.350000
 20
-930.3
 30
0.0
  0
POINT
  8
7
 10
261.778910
 20
-760.5
 30
0.0
  0
ARC
  8
7
 10
196.131699
 20
-764.9
 30
0.0
 40
2.999999
 50
3.000025
 51
90.000026
  0
LINE
  8
7
 10
192.504117
 20
-760.5
 30
0.0
 11
197.495883
 21
-760.5
 31
0.0
  0
LINE
  8
7
 10
193.868301
 20
-761.9
 30
0.0
 11
196.131698
 21
-761.9
 31
0.0
  0
ARC
  8
7
 10
193.868300
 20
-764.9
 30
0.0
 40
2.999999
 50
89.999984
 51
176.999985
  0
ARC
  8
7
 10
192.504116
 20
-763.5
 30
0.0
 40
2.999999
 50
89.999974
 51
176.999975
  0
ARC
  8
7
 10
185.483463
 20
-782.8
 30
0.0
 40
3.200000
 50
271.924765
 51
336.635865
  0
ARC
  8
7
 10
185.483462
 20
-782.8
 30
0.0
 40
3.0
 50
271.924772
 51
357.000005
  0
ARC
  8
7
 10
184.481767
 20
-801.9
 30
0.0
 40
2.999999
 50
269.999984
 51
356.999985
  0
ARC
  8
7
 10
185.786820
 20
-804.5
 30
0.0
 40
2.999999
 50
269.999984
 51
356.999985
  0
LINE
  8
7
 10
187.477654
 20
-802.1
 30
0.0
 11
188.421073
 21
-784.1
 31
0.0
  0
LINE
  8
7
 10
184.481766
 20
-804.9
 30
0.0
 11
168.655203
 21
-804.9
 31
0.0
  0
LINE
  8
7
 10
188.479351
 20
-783.0
 30
0.0
 11
189.508228
 21
-763.3
 31
0.0
  0
LINE
  8
7
 10
188.782707
 20
-804.7
 30
0.0
 11
190.872413
 21
-764.8
 31
0.0
  0
LINE
  8
7
 10
157.166073
 20
-773.5
 30
0.0
 11
157.042383
 21
-773.5
 31
0.0
  0
LINE
  8
7
 10
157.042383
 20
-773.5
 30
0.0
 11
156.923453
 21
-773.6
 31
0.0
  0
LINE
  8
7
 10
156.923453
 20
-776.4
 30
0.0
 11
157.042383
 21
-776.5
 31
0.0
  0
LINE
  8
7
 10
157.042383
 20
-776.5
 30
0.0
 11
157.166073
 21
-776.5
 31
0.0
  0
ARC
  8
7
 10
156.735489
 20
-770.1
 30
0.0
 40
1.299997
 50
154.999858
 51
215.756616
  0
ARC
  8
7
 10
156.735490
 20
-770.1
 30
0.0
 40
0.499999
 50
155.000994
 51
215.757752
  0
LINE
  8
7
 10
156.441023
 20
-773.5
 30
0.0
 11
156.317343
 21
-773.5
 31
0.0
  0
LINE
  8
7
 10
156.317343
 20
-773.5
 30
0.0
 11
156.198403
 21
-773.6
 31
0.0
  0
LINE
  8
7
 10
156.198403
 20
-773.6
 30
0.0
 11
156.088793
 21
-773.8
 31
0.0
  0
LINE
  8
7
 10
156.088793
 20
-773.8
 30
0.0
 11
155.992723
 21
-773.9
 31
0.0
  0
LINE
  8
7
 10
155.992723
 20
-773.9
 30
0.0
 11
155.913873
 21
-774.2
 31
0.0
  0
LINE
  8
7
 10
155.913873
 20
-774.2
 30
0.0
 11
155.855283
 21
-774.4
 31
0.0
  0
LINE
  8
7
 10
155.855283
 20
-774.4
 30
0.0
 11
155.819213
 21
-774.7
 31
0.0
  0
LINE
  8
7
 10
155.819213
 20
-774.7
 30
0.0
 11
155.807023
 21
-775.0
 31
0.0
  0
LINE
  8
7
 10
155.807023
 20
-775.0
 30
0.0
 11
155.819213
 21
-775.3
 31
0.0
  0
LINE
  8
7
 10
155.819213
 20
-775.3
 30
0.0
 11
155.855283
 21
-775.6
 31
0.0
  0
LINE
  8
7
 10
155.855283
 20
-775.6
 30
0.0
 11
155.913873
 21
-775.8
 31
0.0
  0
LINE
  8
7
 10
155.913873
 20
-775.8
 30
0.0
 11
155.992723
 21
-776.1
 31
0.0
  0
LINE
  8
7
 10
155.992723
 20
-776.1
 30
0.0
 11
156.088793
 21
-776.2
 31
0.0
  0
LINE
  8
7
 10
156.088793
 20
-776.2
 30
0.0
 11
156.198403
 21
-776.4
 31
0.0
  0
LINE
  8
7
 10
156.198403
 20
-776.4
 30
0.0
 11
156.317343
 21
-776.5
 31
0.0
  0
LINE
  8
7
 10
156.317343
 20
-776.5
 30
0.0
 11
156.441023
 21
-776.5
 31
0.0
  0
ARC
  8
7
 10
150.000003
 20
-775.0
 30
0.0
 40
1.0
 50
0.0
 51
180.0
  0
ARC
  8
7
 10
150.000003
 20
-775.0
 30
0.0
 40
1.0
 50
180.0
 51
360.0
  0
LINE
  8
7
 10
157.494983
 20
-767.3
 30
0.0
 11
156.282333
 21
-769.9
 31
0.0
  0
LINE
  8
7
 10
156.769943
 20
-767.0
 30
0.0
 11
157.494983
 21
-767.3
 31
0.0
  0
LINE
  8
7
 10
156.769943
 20
-767.0
 30
0.0
 11
155.557293
 21
-769.6
 31
0.0
  0
LINE
  8
7
 10
156.441023
 20
-773.5
 30
0.0
 11
157.654413
 21
-773.5
 31
0.0
  0
LINE
  8
7
 10
156.441023
 20
-776.5
 30
0.0
 11
157.654413
 21
-776.5
 31
0.0
  0
LINE
  8
7
 10
156.923453
 20
-773.6
 30
0.0
 11
156.813843
 21
-773.8
 31
0.0
  0
LINE
  8
7
 10
156.813843
 20
-773.8
 30
0.0
 11
156.717763
 21
-773.9
 31
0.0
  0
LINE
  8
7
 10
156.717763
 20
-773.9
 30
0.0
 11
156.638923
 21
-774.2
 31
0.0
  0
LINE
  8
7
 10
156.638923
 20
-774.2
 30
0.0
 11
156.580333
 21
-774.4
 31
0.0
  0
LINE
  8
7
 10
156.580333
 20
-774.4
 30
0.0
 11
156.544253
 21
-774.7
 31
0.0
  0
LINE
  8
7
 10
156.544253
 20
-774.7
 30
0.0
 11
156.532073
 21
-775.0
 31
0.0
  0
LINE
  8
7
 10
156.532073
 20
-775.0
 30
0.0
 11
156.544253
 21
-775.3
 31
0.0
  0
LINE
  8
7
 10
156.544253
 20
-775.3
 30
0.0
 11
156.580333
 21
-775.6
 31
0.0
  0
LINE
  8
7
 10
156.580333
 20
-775.6
 30
0.0
 11
156.638923
 21
-775.8
 31
0.0
  0
LINE
  8
7
 10
156.638923
 20
-775.8
 30
0.0
 11
156.717763
 21
-776.1
 31
0.0
  0
LINE
  8
7
 10
156.717763
 20
-776.1
 30
0.0
 11
156.813843
 21
-776.2
 31
0.0
  0
LINE
  8
7
 10
156.813843
 20
-776.2
 30
0.0
 11
156.923453
 21
-776.4
 31
0.0
  0
ARC
  8
7
 10
149.999992
 20
-775.0
 30
0.0
 40
7.000003
 50
12.373574
 51
35.756708
  0
ARC
  8
7
 10
143.264507
 20
-770.1
 30
0.0
 40
1.299997
 50
324.243384
 51
385.000142
  0
LINE
  8
7
 10
143.911203
 20
-776.2
 30
0.0
 11
144.007283
 21
-776.1
 31
0.0
  0
LINE
  8
7
 10
144.007283
 20
-776.1
 30
0.0
 11
144.086123
 21
-775.8
 31
0.0
  0
LINE
  8
7
 10
144.086123
 20
-775.8
 30
0.0
 11
144.144713
 21
-775.6
 31
0.0
  0
LINE
  8
7
 10
144.144713
 20
-775.6
 30
0.0
 11
144.180793
 21
-775.3
 31
0.0
  0
LINE
  8
7
 10
144.180793
 20
-775.3
 30
0.0
 11
144.192973
 21
-775.0
 31
0.0
  0
LINE
  8
7
 10
144.192973
 20
-775.0
 30
0.0
 11
144.180793
 21
-774.7
 31
0.0
  0
LINE
  8
7
 10
144.180793
 20
-774.7
 30
0.0
 11
144.144713
 21
-774.4
 31
0.0
  0
LINE
  8
7
 10
144.144713
 20
-774.4
 30
0.0
 11
144.086123
 21
-774.2
 31
0.0
  0
LINE
  8
7
 10
144.086123
 20
-774.2
 30
0.0
 11
144.007283
 21
-773.9
 31
0.0
  0
LINE
  8
7
 10
144.007283
 20
-773.9
 30
0.0
 11
143.911203
 21
-773.8
 31
0.0
  0
LINE
  8
7
 10
143.230063
 20
-767.0
 30
0.0
 11
142.505013
 21
-767.3
 31
0.0
  0
LINE
  8
7
 10
142.833923
 20
-776.5
 30
0.0
 11
142.957613
 21
-776.5
 31
0.0
  0
LINE
  8
7
 10
142.957613
 20
-776.5
 30
0.0
 11
143.076553
 21
-776.4
 31
0.0
  0
LINE
  8
7
 10
143.076553
 20
-776.4
 30
0.0
 11
143.186163
 21
-776.2
 31
0.0
  0
LINE
  8
7
 10
143.186163
 20
-776.2
 30
0.0
 11
143.282233
 21
-776.1
 31
0.0
  0
LINE
  8
7
 10
143.282233
 20
-776.1
 30
0.0
 11
143.361083
 21
-775.8
 31
0.0
  0
LINE
  8
7
 10
143.361083
 20
-774.2
 30
0.0
 11
143.282233
 21
-773.9
 31
0.0
  0
LINE
  8
7
 10
143.282233
 20
-773.9
 30
0.0
 11
143.186163
 21
-773.8
 31
0.0
  0
LINE
  8
7
 10
143.186163
 20
-773.8
 30
0.0
 11
143.076553
 21
-773.6
 31
0.0
  0
LINE
  8
7
 10
143.076553
 20
-773.6
 30
0.0
 11
142.957613
 21
-773.5
 31
0.0
  0
LINE
  8
7
 10
142.957613
 20
-773.5
 30
0.0
 11
142.833923
 21
-773.5
 31
0.0
  0
LINE
  8
7
 10
143.558973
 20
-776.5
 30
0.0
 11
142.345593
 21
-776.5
 31
0.0
  0
LINE
  8
7
 10
143.558973
 20
-773.5
 30
0.0
 11
142.345593
 21
-773.5
 31
0.0
  0
ARC
  8
7
 10
150.000004
 20
-775.0
 30
0.0
 40
7.000003
 50
144.243292
 51
167.626426
  0
LINE
  8
7
 10
143.230063
 20
-767.0
 30
0.0
 11
144.442703
 21
-769.6
 31
0.0
  0
LINE
  8
7
 10
142.505013
 20
-767.3
 30
0.0
 11
143.717663
 21
-769.9
 31
0.0
  0
ARC
  8
7
 10
143.264511
 20
-770.1
 30
0.0
 40
0.499998
 50
324.243376
 51
385.000134
  0
LINE
  8
7
 10
143.361083
 20
-775.8
 30
0.0
 11
143.419663
 21
-775.6
 31
0.0
  0
LINE
  8
7
 10
143.419663
 20
-775.6
 30
0.0
 11
143.455743
 21
-775.3
 31
0.0
  0
LINE
  8
7
 10
143.455743
 20
-775.3
 30
0.0
 11
143.467923
 21
-775.0
 31
0.0
  0
LINE
  8
7
 10
143.467923
 20
-775.0
 30
0.0
 11
143.455743
 21
-774.7
 31
0.0
  0
LINE
  8
7
 10
143.455743
 20
-774.7
 30
0.0
 11
143.419663
 21
-774.4
 31
0.0
  0
LINE
  8
7
 10
143.419663
 20
-774.4
 30
0.0
 11
143.361083
 21
-774.2
 31
0.0
  0
LINE
  8
7
 10
143.558973
 20
-776.5
 30
0.0
 11
143.682663
 21
-776.5
 31
0.0
  0
LINE
  8
7
 10
143.682663
 20
-776.5
 30
0.0
 11
143.801593
 21
-776.4
 31
0.0
  0
LINE
  8
7
 10
143.801593
 20
-776.4
 30
0.0
 11
143.911203
 21
-776.2
 31
0.0
  0
LINE
  8
7
 10
143.911203
 20
-773.8
 30
0.0
 11
143.801593
 21
-773.6
 31
0.0
  0
LINE
  8
7
 10
143.801593
 20
-773.6
 30
0.0
 11
143.682663
 21
-773.5
 31
0.0
  0
LINE
  8
7
 10
143.682663
 20
-773.5
 30
0.0
 11
143.558973
 21
-773.5
 31
0.0
  0
ARC
  8
7
 10
149.999998
 20
-775.0
 30
0.0
 40
6.999999
 50
35.756758
 51
144.243242
  0
LINE
  8
7
 10
160.000003
 20
-787.1
 30
0.0
 11
157.278863
 21
-787.2
 31
0.0
  0
LINE
  8
7
 10
160.000003
 20
-787.1
 30
0.0
 11
160.000003
 21
-787.6
 31
0.0
  0
ARC
  8
7
 10
161.241864
 20
-790.6
 30
0.0
 40
3.0
 50
2.999993
 51
91.924760
  0
LINE
  8
7
 10
156.314873
 20
-786.8
 30
0.0
 11
154.500003
 21
-786.9
 31
0.0
  0
LINE
  8
7
 10
156.444713
 20
-787.2
 30
0.0
 11
154.500003
 21
-787.3
 31
0.0
  0
ARC
  8
7
 10
156.316418
 20
-781.1
 30
0.0
 40
1.800005
 50
135.870921
 51
198.484162
  0
ARC
  8
7
 10
156.316410
 20
-781.1
 30
0.0
 40
0.999999
 50
135.871372
 51
198.484613
  0
LINE
  8
7
 10
154.609273
 20
-781.7
 30
0.0
 11
154.814863
 21
-782.3
 31
0.0
  0
LINE
  8
7
 10
155.368003
 20
-781.4
 30
0.0
 11
155.658373
 21
-782.3
 31
0.0
  0
ARC
  8
7
 10
152.899999
 20
-786.1
 30
0.0
 40
1.600004
 50
0.000063
 51
73.808671
  0
LINE
  8
7
 10
154.174993
 20
-787.8
 30
0.0
 11
154.174993
 21
-787.4
 31
0.0
  0
LINE
  8
7
 10
154.500003
 20
-787.4
 30
0.0
 11
154.500003
 21
-786.1
 31
0.0
  0
LINE
  8
7
 10
150.000003
 20
-787.4
 30
0.0
 11
150.329143
 21
-788.0
 31
0.0
  0
LINE
  8
7
 10
149.592873
 20
-788.0
 30
0.0
 11
149.249443
 21
-787.4
 31
0.0
  0
LINE
  8
7
 10
154.814863
 20
-782.3
 30
0.0
 11
156.635153
 21
-787.8
 31
0.0
  0
LINE
  8
7
 10
155.658373
 20
-782.3
 30
0.0
 11
157.469303
 21
-787.7
 31
0.0
  0
LINE
  8
7
 10
164.928023
 20
-803.6
 30
0.0
 11
164.237753
 21
-790.4
 31
0.0
  0
LINE
  8
7
 10
145.390723
 20
-781.7
 30
0.0
 11
145.185143
 21
-782.3
 31
0.0
  0
LINE
  8
7
 10
144.632003
 20
-781.4
 30
0.0
 11
144.341623
 21
-782.3
 31
0.0
  0
ARC
  8
7
 10
143.683583
 20
-781.1
 30
0.0
 40
1.800002
 50
341.515539
 51
404.128780
  0
ARC
  8
7
 10
143.683591
 20
-781.1
 30
0.0
 40
1.000001
 50
341.515924
 51
404.129166
  0
ARC
  8
7
 10
147.099994
 20
-786.1
 30
0.0
 40
1.599991
 50
106.191334
 51
180.000051
  0
LINE
  8
7
 10
145.500003
 20
-787.4
 30
0.0
 11
145.500003
 21
-786.1
 31
0.0
  0
LINE
  8
7
 10
145.500003
 20
-787.2
 30
0.0
 11
143.541633
 21
-787.2
 31
0.0
  0
LINE
  8
7
 10
145.825003
 20
-787.5
 30
0.0
 11
143.408833
 21
-787.6
 31
0.0
  0
LINE
  8
7
 10
140.000003
 20
-787.7
 30
0.0
 11
140.000003
 21
-788.3
 31
0.0
  0
LINE
  8
7
 10
142.555733
 20
-787.7
 30
0.0
 11
140.000003
 21
-787.7
 31
0.0
  0
LINE
  8
7
 10
144.341623
 20
-782.3
 30
0.0
 11
142.360963
 21
-788.2
 31
0.0
  0
LINE
  8
7
 10
145.185143
 20
-782.3
 30
0.0
 11
143.214063
 21
-788.2
 31
0.0
  0
LINE
  8
7
 10
145.825003
 20
-788.1
 30
0.0
 11
145.825003
 21
-787.4
 31
0.0
  0
ARC
  8
7
 10
135.330072
 20
-784.5
 30
0.0
 40
3.0
 50
182.999993
 51
271.924760
  0
LINE
  8
7
 10
142.688533
 20
-787.3
 30
0.0
 11
135.430833
 21
-787.5
 31
0.0
  0
ARC
  8
7
 10
134.660851
 20
-804.5
 30
0.0
 40
3.0
 50
183.000034
 51
270.000035
  0
ARC
  8
7
 10
135.302291
 20
-803.5
 30
0.0
 40
3.0
 50
183.000034
 51
270.000035
  0
LINE
  8
7
 10
131.365303
 20
-785.7
 30
0.0
 11
132.306403
 21
-803.6
 31
0.0
  0
LINE
  8
7
 10
161.141103
 20
-787.6
 30
0.0
 11
134.461953
 21
-788.5
 31
0.0
  0
LINE
  8
7
 10
154.500003
 20
-787.4
 30
0.0
 11
145.500003
 21
-787.4
 31
0.0
  0
ARC
  8
7
 10
150.000003
 20
-796.1
 30
0.0
 40
11.999990
 50
73.808654
 51
106.191346
  0
ARC
  8
7
 10
149.999998
 20
-784.1
 30
0.0
 40
2.000002
 50
184.780192
 51
355.219808
  0
LINE
  8
7
 10
132.334183
 20
-784.7
 30
0.0
 11
131.216973
 21
-763.3
 31
0.0
  0
LINE
  8
7
 10
132.334183
 20
-784.7
 30
0.0
 11
131.374203
 21
-766.3
 31
0.0
  0
ARC
  8
7
 10
150.000004
 20
-775.0
 30
0.0
 40
7.800002
 50
144.243233
 51
224.128979
  0
ARC
  8
7
 10
150.000004
 20
-775.0
 30
0.0
 40
6.999989
 50
315.871105
 51
347.626470
  0
ARC
  8
7
 10
149.999997
 20
-775.0
 30
0.0
 40
7.800003
 50
315.870964
 51
395.756710
  0
ARC
  8
7
 10
149.999997
 20
-775.0
 30
0.0
 40
6.999998
 50
192.373662
 51
224.129027
  0
ARC
  8
7
 10
149.999998
 20
-775.0
 30
0.0
 40
6.999998
 50
192.373625
 51
347.626375
  0
LINE
  8
7
 10
162.068393
 20
-786.8
 30
0.0
 11
185.573226
 21
-786.0
 31
0.0
  0
LINE
  8
7
 10
185.584224
 20
-785.8
 30
0.0
 11
157.149013
 21
-786.8
 31
0.0
  0
ARC
  8
7
 10
162.012214
 20
-789.8
 30
0.0
 40
3.0
 50
2.999993
 51
91.924760
  0
LINE
  8
7
 10
165.008103
 20
-789.7
 30
0.0
 11
165.659313
 21
-802.1
 31
0.0
  0
LINE
  8
7
 10
134.660853
 20
-807.5
 30
0.0
 11
185.786819
 21
-807.5
 31
0.0
  0
LINE
  8
7
 10
167.923913
 20
-806.5
 30
0.0
 11
135.302293
 21
-806.5
 31
0.0
  0
ARC
  8
7
 10
168.655201
 20
-801.9
 30
0.0
 40
3.0
 50
183.000034
 51
270.000035
  0
ARC
  8
7
 10
167.923911
 20
-803.5
 30
0.0
 40
3.0
 50
183.000034
 51
270.000035
  0
ARC
  8
7
 10
126.579370
 20
-764.9
 30
0.0
 40
2.999994
 50
2.999939
 51
89.999940
  0
LINE
  8
7
 10
123.229323
 20
-760.5
 30
0.0
 11
128.221083
 21
-760.5
 31
0.0
  0
LINE
  8
7
 10
126.579373
 20
-761.9
 30
0.0
 11
124.397393
 21
-761.9
 31
0.0
  0
ARC
  8
7
 10
123.229321
 20
-763.5
 30
0.0
 40
3.0
 50
89.999965
 51
176.999966
  0
ARC
  8
7
 10
124.397391
 20
-764.9
 30
0.0
 40
3.0
 50
89.999965
 51
176.999966
  0
ARC
  8
7
 10
120.647510
 20
-812.8
 30
0.0
 40
2.999998
 50
177.000003
 51
265.000004
  0
LINE
  8
7
 10
118.908993
 20
-812.3
 30
0.0
 11
119.479613
 21
-801.5
 31
0.0
  0
LINE
  8
7
 10
117.651623
 20
-812.6
 30
0.0
 11
118.180783
 21
-802.5
 31
0.0
  0
ARC
  8
7
 10
121.904883
 20
-812.5
 30
0.0
 40
3.000002
 50
176.999994
 51
269.999994
  0
LINE
  8
7
 10
118.573543
 20
-795.0
 30
0.0
 11
118.180783
 21
-802.5
 31
0.0
  0
LINE
  8
7
 10
119.750443
 20
-796.3
 30
0.0
 11
119.479613
 21
-801.5
 31
0.0
  0
LINE
  8
7
 10
119.750443
 20
-796.3
 30
0.0
 11
121.401503
 21
-764.8
 31
0.0
  0
LINE
  8
7
 10
118.573543
 20
-795.0
 30
0.0
 11
120.233433
 21
-763.3
 31
0.0
  0
LINE
  8
7
 10
118.573543
 20
-795.0
 30
0.0
 11
120.076213
 21
-766.3
 31
0.0
  0
ARC
  8
7
 10
134.361192
 20
-785.5
 30
0.0
 40
3.0
 50
182.999993
 51
271.924760
  0
LINE
  8
7
 10
131.664963
 20
-804.7
 30
0.0
 11
129.575253
 21
-764.8
 31
0.0
  0
ARC
  8
7
 10
128.221085
 20
-763.5
 30
0.0
 40
3.0
 50
3.000034
 51
90.000035
  0
LINE
  8
7
 10
120.386043
 20
-815.8
 30
0.0
 11
140.500003
 21
-817.5
 31
0.0
  0
LINE
  8
7
 10
177.140172
 20
-826.1
 30
0.0
 11
175.946541
 21
-825.0
 31
0.0
  0
LINE
  8
7
 10
177.500000
 20
-829.5
 30
0.0
 11
177.500000
 21
-827.0
 31
0.0
  0
ARC
  8
7
 10
179.235282
 20
-824.0
 30
0.0
 40
3.0
 50
224.999989
 51
269.999989
  0
ARC
  8
7
 10
175.018854
 20
-828.3
 30
0.0
 40
3.000001
 50
134.999999
 51
204.228883
  0
ARC
  8
7
 10
173.825220
 20
-827.1
 30
0.0
 40
3.0
 50
127.260691
 51
225.000076
  0
LINE
  8
7
 10
172.007363
 20
-829.5
 30
0.0
 11
171.703903
 21
-829.2
 31
0.0
  0
ARC
  8
7
 10
176.750000
 20
-830.0
 30
0.0
 40
3.0
 50
89.999999
 51
170.405931
  0
ARC
  8
7
 10
175.018853
 20
-828.3
 30
0.0
 40
2.999999
 50
45.0
 51
135.0
  0
ARC
  8
7
 10
173.825219
 20
-827.1
 30
0.0
 40
3.000003
 50
44.999992
 51
127.260607
  0
LINE
  8
7
 10
172.007363
 20
-883.0
 30
0.0
 11
171.703903
 21
-883.3
 31
0.0
  0
LINE
  8
7
 10
177.113961
 20
-886.4
 30
0.0
 11
175.946541
 21
-887.5
 31
0.0
  0
ARC
  8
7
 10
179.235282
 20
-888.5
 30
0.0
 40
3.0
 50
90.000011
 51
135.000011
  0
LINE
  8
7
 10
182.192027
 20
-905.7
 30
0.0
 11
177.807972
 21
-901.3
 31
0.0
  0
LINE
  8
7
 10
182.192034
 20
-901.3
 30
0.0
 11
177.807965
 21
-905.7
 31
0.0
  0
LINE
  8
7
 10
169.000003
 20
-903.5
 30
0.0
 11
169.000003
 21
-893.5
 31
0.0
  0
ARC
  8
7
 10
175.018853
 20
-884.2
 30
0.0
 40
2.999999
 50
225.0
 51
315.0
  0
ARC
  8
7
 10
173.825219
 20
-885.4
 30
0.0
 40
3.000003
 50
232.739393
 51
315.000008
  0
ARC
  8
7
 10
174.000002
 20
-893.5
 30
0.0
 40
4.999999
 50
90.000017
 51
180.000017
  0
LINE
  8
7
 10
171.148223
 20
-891.4
 30
0.0
 11
174.080568
 21
-895.4
 31
0.0
  0
ARC
  8
7
 10
176.750000
 20
-882.5
 30
0.0
 40
3.0
 50
189.594069
 51
270.000001
  0
ARC
  8
7
 10
173.825220
 20
-885.4
 30
0.0
 40
3.0
 50
134.999924
 51
232.739309
  0
ARC
  8
7
 10
175.018854
 20
-884.2
 30
0.0
 40
3.000001
 50
155.771117
 51
225.000001
  0
LINE
  8
7
 10
177.500000
 20
-883.0
 30
0.0
 11
177.500000
 21
-885.5
 31
0.0
  0
LINE
  8
7
 10
140.500003
 20
-823.0
 30
0.0
 11
140.500003
 21
-829.5
 31
0.0
  0
LINE
  8
7
 10
134.500003
 20
-829.5
 30
0.0
 11
134.500003
 21
-827.2
 31
0.0
  0
LINE
  8
7
 10
163.000003
 20
-901.9
 30
0.0
 11
163.000003
 21
-903.5
 31
0.0
  0
ARC
  8
7
 10
165.550294
 20
-896.6
 30
0.0
 40
7.336660
 50
227.409210
 51
249.658845
  0
ARC
  8
7
 10
165.550279
 20
-896.6
 30
0.0
 40
5.836635
 50
218.775474
 51
244.091012
  0
LINE
  8
7
 10
161.000003
 20
-895.5
 30
0.0
 11
161.000003
 21
-900.3
 31
0.0
  0
LINE
  8
7
 10
159.500003
 20
-895.5
 30
0.0
 11
159.500003
 21
-900.5
 31
0.0
  0
LINE
  8
7
 10
159.500003
 20
-895.5
 30
0.0
 11
161.000003
 21
-895.5
 31
0.0
  0
LINE
  8
7
 10
155.000003
 20
-895.5
 30
0.0
 11
156.500003
 21
-895.5
 31
0.0
  0
LINE
  8
7
 10
155.000003
 20
-900.5
 30
0.0
 11
155.000003
 21
-895.5
 31
0.0
  0
LINE
  8
7
 10
156.500003
 20
-900.5
 30
0.0
 11
156.500003
 21
-895.5
 31
0.0
  0
ARC
  8
7
 10
157.999998
 20
-900.5
 30
0.0
 40
2.999995
 50
180.000049
 51
329.510200
  0
ARC
  8
7
 10
158.000003
 20
-900.5
 30
0.0
 40
1.500000
 50
180.0
 51
360.0
  0
LINE
  8
7
 10
155.408874
 20
-901.9
 30
0.0
 11
157.612694
 21
-901.9
 31
0.0
  0
LINE
  8
7
 10
158.387306
 20
-901.9
 30
0.0
 11
163.0
 21
-901.9
 31
0.0
  0
LINE
  8
7
 10
155.542462
 20
-902.1
 30
0.0
 11
160.490452
 21
-902.1
 31
0.0
  0
LINE
  8
7
 10
160.729512
 20
-902.1
 30
0.0
 11
163.0
 21
-902.1
 31
0.0
  0
LINE
  8
7
 10
155.676052
 20
-902.3
 30
0.0
 11
160.316506
 21
-902.3
 31
0.0
  0
LINE
  8
7
 10
160.994648
 20
-902.3
 30
0.0
 11
163.0
 21
-902.3
 31
0.0
  0
LINE
  8
7
 10
155.809640
 20
-902.5
 30
0.0
 11
160.142562
 21
-902.5
 31
0.0
  0
LINE
  8
7
 10
161.259784
 20
-902.5
 30
0.0
 11
163.0
 21
-902.5
 31
0.0
  0
LINE
  8
7
 10
156.045936
 20
-902.7
 30
0.0
 11
159.968616
 21
-902.7
 31
0.0
  0
LINE
  8
7
 10
161.524920
 20
-902.7
 30
0.0
 11
163.0
 21
-902.7
 31
0.0
  0
LINE
  8
7
 10
156.329346
 20
-902.9
 30
0.0
 11
159.711398
 21
-902.9
 31
0.0
  0
LINE
  8
7
 10
161.828472
 20
-902.9
 30
0.0
 11
163.0
 21
-902.9
 31
0.0
  0
LINE
  8
7
 10
156.612756
 20
-903.1
 30
0.0
 11
159.334248
 21
-903.1
 31
0.0
  0
LINE
  8
7
 10
162.240292
 20
-903.1
 30
0.0
 11
163.0
 21
-903.1
 31
0.0
  0
LINE
  8
7
 10
157.164056
 20
-903.3
 30
0.0
 11
158.957098
 21
-903.3
 31
0.0
  0
LINE
  8
7
 10
162.652112
 20
-903.3
 30
0.0
 11
163.0
 21
-903.3
 31
0.0
  0
LINE
  8
7
 10
155.275284
 20
-901.7
 30
0.0
 11
157.168972
 21
-901.7
 31
0.0
  0
LINE
  8
7
 10
158.831028
 20
-901.7
 30
0.0
 11
162.778292
 21
-901.7
 31
0.0
  0
LINE
  8
7
 10
155.208796
 20
-901.5
 30
0.0
 11
156.930622
 21
-901.5
 31
0.0
  0
LINE
  8
7
 10
159.069378
 20
-901.5
 30
0.0
 11
162.461162
 21
-901.5
 31
0.0
  0
LINE
  8
7
 10
155.163754
 20
-901.3
 30
0.0
 11
156.774068
 21
-901.3
 31
0.0
  0
LINE
  8
7
 10
159.225930
 20
-901.3
 30
0.0
 11
162.144034
 21
-901.3
 31
0.0
  0
LINE
  8
7
 10
155.118714
 20
-901.1
 30
0.0
 11
156.658598
 21
-901.1
 31
0.0
  0
LINE
  8
7
 10
159.341400
 20
-901.1
 30
0.0
 11
161.857978
 21
-901.1
 31
0.0
  0
LINE
  8
7
 10
155.073672
 20
-900.9
 30
0.0
 11
156.576006
 21
-900.9
 31
0.0
  0
LINE
  8
7
 10
159.423994
 20
-900.9
 30
0.0
 11
161.657248
 21
-900.9
 31
0.0
  0
LINE
  8
7
 10
155.028630
 20
-900.7
 30
0.0
 11
156.540740
 21
-900.7
 31
0.0
  0
LINE
  8
7
 10
159.459260
 20
-900.7
 30
0.0
 11
161.456518
 21
-900.7
 31
0.0
  0
LINE
  8
7
 10
155.000586
 20
-900.5
 30
0.0
 11
156.505474
 21
-900.5
 31
0.0
  0
LINE
  8
7
 10
159.494526
 20
-900.5
 30
0.0
 11
161.255788
 21
-900.5
 31
0.0
  0
LINE
  8
7
 10
155.0
 20
-900.3
 30
0.0
 11
156.500000
 21
-900.3
 31
0.0
  0
LINE
  8
7
 10
159.500000
 20
-900.3
 30
0.0
 11
161.055058
 21
-900.3
 31
0.0
  0
LINE
  8
7
 10
155.0
 20
-900.1
 30
0.0
 11
156.500000
 21
-900.1
 31
0.0
  0
LINE
  8
7
 10
159.500000
 20
-900.1
 30
0.0
 11
161.0
 21
-900.1
 31
0.0
  0
LINE
  8
7
 10
155.0
 20
-899.9
 30
0.0
 11
156.500000
 21
-899.9
 31
0.0
  0
LINE
  8
7
 10
159.500000
 20
-899.9
 30
0.0
 11
161.0
 21
-899.9
 31
0.0
  0
LINE
  8
7
 10
155.0
 20
-899.7
 30
0.0
 11
156.500000
 21
-899.7
 31
0.0
  0
LINE
  8
7
 10
159.500000
 20
-899.7
 30
0.0
 11
161.0
 21
-899.7
 31
0.0
  0
LINE
  8
7
 10
155.0
 20
-899.5
 30
0.0
 11
156.500000
 21
-899.5
 31
0.0
  0
LINE
  8
7
 10
159.500000
 20
-899.5
 30
0.0
 11
161.0
 21
-899.5
 31
0.0
  0
LINE
  8
7
 10
155.0
 20
-899.3
 30
0.0
 11
156.500000
 21
-899.3
 31
0.0
  0
LINE
  8
7
 10
159.500000
 20
-899.3
 30
0.0
 11
161.0
 21
-899.3
 31
0.0
  0
LINE
  8
7
 10
155.0
 20
-899.1
 30
0.0
 11
156.500000
 21
-899.1
 31
0.0
  0
LINE
  8
7
 10
159.500000
 20
-899.1
 30
0.0
 11
161.0
 21
-899.1
 31
0.0
  0
LINE
  8
7
 10
155.0
 20
-898.9
 30
0.0
 11
156.500000
 21
-898.9
 31
0.0
  0
LINE
  8
7
 10
159.500000
 20
-898.9
 30
0.0
 11
161.0
 21
-898.9
 31
0.0
  0
LINE
  8
7
 10
155.0
 20
-898.7
 30
0.0
 11
156.500000
 21
-898.7
 31
0.0
  0
LINE
  8
7
 10
159.500000
 20
-898.7
 30
0.0
 11
161.0
 21
-898.7
 31
0.0
  0
LINE
  8
7
 10
155.0
 20
-898.5
 30
0.0
 11
156.500000
 21
-898.5
 31
0.0
  0
LINE
  8
7
 10
159.500000
 20
-898.5
 30
0.0
 11
161.0
 21
-898.5
 31
0.0
  0
LINE
  8
7
 10
155.0
 20
-898.3
 30
0.0
 11
156.500000
 21
-898.3
 31
0.0
  0
LINE
  8
7
 10
159.500000
 20
-898.3
 30
0.0
 11
161.0
 21
-898.3
 31
0.0
  0
LINE
  8
7
 10
155.0
 20
-898.1
 30
0.0
 11
156.500000
 21
-898.1
 31
0.0
  0
LINE
  8
7
 10
159.500000
 20
-898.1
 30
0.0
 11
161.0
 21
-898.1
 31
0.0
  0
LINE
  8
7
 10
155.0
 20
-897.9
 30
0.0
 11
156.500000
 21
-897.9
 31
0.0
  0
LINE
  8
7
 10
159.500000
 20
-897.9
 30
0.0
 11
161.0
 21
-897.9
 31
0.0
  0
LINE
  8
7
 10
155.0
 20
-897.7
 30
0.0
 11
156.500000
 21
-897.7
 31
0.0
  0
LINE
  8
7
 10
159.500000
 20
-897.7
 30
0.0
 11
161.0
 21
-897.7
 31
0.0
  0
LINE
  8
7
 10
155.0
 20
-897.5
 30
0.0
 11
156.500000
 21
-897.5
 31
0.0
  0
LINE
  8
7
 10
159.500000
 20
-897.5
 30
0.0
 11
161.0
 21
-897.5
 31
0.0
  0
LINE
  8
7
 10
155.0
 20
-897.3
 30
0.0
 11
156.500000
 21
-897.3
 31
0.0
  0
LINE
  8
7
 10
159.500000
 20
-897.3
 30
0.0
 11
161.0
 21
-897.3
 31
0.0
  0
LINE
  8
7
 10
155.0
 20
-897.1
 30
0.0
 11
156.500000
 21
-897.1
 31
0.0
  0
LINE
  8
7
 10
159.500000
 20
-897.1
 30
0.0
 11
161.0
 21
-897.1
 31
0.0
  0
LINE
  8
7
 10
155.0
 20
-896.9
 30
0.0
 11
156.500000
 21
-896.9
 31
0.0
  0
LINE
  8
7
 10
159.500000
 20
-896.9
 30
0.0
 11
161.0
 21
-896.9
 31
0.0
  0
LINE
  8
7
 10
155.0
 20
-896.7
 30
0.0
 11
156.500000
 21
-896.7
 31
0.0
  0
LINE
  8
7
 10
159.500000
 20
-896.7
 30
0.0
 11
161.0
 21
-896.7
 31
0.0
  0
LINE
  8
7
 10
155.0
 20
-896.5
 30
0.0
 11
156.500000
 21
-896.5
 31
0.0
  0
LINE
  8
7
 10
159.500000
 20
-896.5
 30
0.0
 11
161.0
 21
-896.5
 31
0.0
  0
LINE
  8
7
 10
155.0
 20
-896.3
 30
0.0
 11
156.500000
 21
-896.3
 31
0.0
  0
LINE
  8
7
 10
159.500000
 20
-896.3
 30
0.0
 11
161.0
 21
-896.3
 31
0.0
  0
LINE
  8
7
 10
155.0
 20
-896.1
 30
0.0
 11
156.500000
 21
-896.1
 31
0.0
  0
LINE
  8
7
 10
159.500000
 20
-896.1
 30
0.0
 11
161.0
 21
-896.1
 31
0.0
  0
LINE
  8
7
 10
155.0
 20
-895.9
 30
0.0
 11
156.500000
 21
-895.9
 31
0.0
  0
LINE
  8
7
 10
159.500000
 20
-895.9
 30
0.0
 11
161.0
 21
-895.9
 31
0.0
  0
LINE
  8
7
 10
155.0
 20
-895.7
 30
0.0
 11
156.500000
 21
-895.7
 31
0.0
  0
LINE
  8
7
 10
159.500000
 20
-895.7
 30
0.0
 11
161.0
 21
-895.7
 31
0.0
  0
LINE
  8
7
 10
155.0
 20
-895.5
 30
0.0
 11
156.500000
 21
-895.5
 31
0.0
  0
LINE
  8
7
 10
159.500000
 20
-895.5
 30
0.0
 11
161.0
 21
-895.5
 31
0.0
  0
LINE
  8
7
 10
131.000003
 20
-885.3
 30
0.0
 11
131.000003
 21
-886.6
 31
0.0
  0
LINE
  8
7
 10
133.850003
 20
-888.0
 30
0.0
 11
131.197313
 21
-885.3
 31
0.0
  0
LINE
  8
7
 10
133.850003
 20
-902.8
 30
0.0
 11
136.150003
 21
-902.8
 31
0.0
  0
LINE
  8
7
 10
140.500003
 20
-883.0
 30
0.0
 11
140.500003
 21
-886.5
 31
0.0
  0
ARC
  8
7
 10
132.350003
 20
-886.8
 30
0.0
 40
3.800000
 50
0.0
 51
90.0
  0
ARC
  8
7
 10
132.350003
 20
-886.8
 30
0.0
 40
1.500000
 50
0.0
 51
90.0
  0
LINE
  8
7
 10
140.500003
 20
-829.5
 30
0.0
 11
140.500003
 21
-883.0
 31
0.0
  0
LINE
  8
7
 10
155.000003
 20
-876.3
 30
0.0
 11
155.000003
 21
-836.3
 31
0.0
  0
LINE
  8
7
 10
165.000003
 20
-922.0
 30
0.0
 11
165.000003
 21
-924.5
 31
0.0
  0
LINE
  8
7
 10
163.150003
 20
-930.3
 30
0.0
 11
163.150003
 21
-928.0
 31
0.0
  0
LINE
  8
7
 10
154.650003
 20
-930.3
 30
0.0
 11
154.650003
 21
-928.0
 31
0.0
  0
LINE
  8
7
 10
144.650003
 20
-930.3
 30
0.0
 11
144.650003
 21
-928.0
 31
0.0
  0
LINE
  8
7
 10
136.150003
 20
-925.3
 30
0.0
 11
138.802693
 21
-928.0
 31
0.0
  0
ARC
  8
7
 10
137.650003
 20
-926.5
 30
0.0
 40
3.800000
 50
180.0
 51
270.0
  0
ARC
  8
7
 10
137.650003
 20
-926.5
 30
0.0
 40
1.500000
 50
180.0
 51
270.0
  0
LINE
  8
7
 10
163.150003
 20
-930.3
 30
0.0
 11
137.650003
 21
-930.3
 31
0.0
  0
LINE
  8
7
 10
163.150003
 20
-928.0
 30
0.0
 11
137.650003
 21
-928.0
 31
0.0
  0
ARC
  8
7
 10
162.000003
 20
-922.0
 30
0.0
 40
3.0
 50
359.999983
 51
429.190409
  0
ARC
  8
7
 10
175.500002
 20
-886.5
 30
0.0
 40
34.999999
 50
179.999998
 51
269.999997
  0
ARC
  8
7
 10
180.000001
 20
-903.5
 30
0.0
 40
8.999999
 50
0.0
 51
180.0
  0
ARC
  8
7
 10
180.000001
 20
-903.5
 30
0.0
 40
8.999999
 50
180.0
 51
360.0
  0
ARC
  8
7
 10
180.000002
 20
-903.5
 30
0.0
 40
10.999999
 50
179.999992
 51
269.999992
  0
POINT
  8
7
 10
180.0
 20
-903.5
 30
0.0
  0
LINE
  8
7
 10
175.000001
 20
-900.6
 30
0.0
 11
180.0
 21
-897.8
 31
0.0
  0
LINE
  8
7
 10
180.0
 20
-897.8
 30
0.0
 11
184.999999
 21
-900.6
 31
0.0
  0
LINE
  8
7
 10
185.0
 20
-900.6
 30
0.0
 11
185.0
 21
-906.4
 31
0.0
  0
LINE
  8
7
 10
184.999999
 20
-906.4
 30
0.0
 11
180.0
 21
-909.2
 31
0.0
  0
LINE
  8
7
 10
180.0
 20
-909.2
 30
0.0
 11
175.000001
 21
-906.4
 31
0.0
  0
LINE
  8
7
 10
175.0
 20
-906.4
 30
0.0
 11
175.0
 21
-900.6
 31
0.0
  0
CIRCLE
  8
7
 10
180.0
 20
-903.5
 30
0.0
 40
5.0
  0
CIRCLE
  8
7
 10
180.0
 20
-903.5
 30
0.0
 40
6.100000
  0
LINE
  8
7
 10
133.850003
 20
-926.5
 30
0.0
 11
133.850003
 21
-886.8
 31
0.0
  0
LINE
  8
7
 10
136.150003
 20
-886.8
 30
0.0
 11
136.150003
 21
-926.5
 31
0.0
  0
LINE
  8
7
 10
128.659003
 20
-825.2
 30
0.0
 11
128.659003
 21
-823.8
 31
0.0
  0
LINE
  8
7
 10
129.000003
 20
-825.2
 30
0.0
 11
129.000003
 21
-823.8
 31
0.0
  0
LINE
  8
7
 10
124.341003
 20
-825.2
 30
0.0
 11
124.341003
 21
-823.8
 31
0.0
  0
LINE
  8
7
 10
124.000003
 20
-825.2
 30
0.0
 11
124.000003
 21
-823.8
 31
0.0
  0
LINE
  8
7
 10
124.000003
 20
-823.8
 30
0.0
 11
129.000003
 21
-823.8
 31
0.0
  0
LINE
  8
7
 10
123.000003
 20
-825.2
 30
0.0
 11
130.000003
 21
-825.2
 31
0.0
  0
LINE
  8
7
 10
118.500003
 20
-829.5
 30
0.0
 11
118.500003
 21
-827.2
 31
0.0
  0
ARC
  8
7
 10
121.000003
 20
-825.2
 30
0.0
 40
2.0
 50
270.0
 51
360.0
  0
ARC
  8
7
 10
126.499998
 20
-876.6
 30
0.0
 40
12.000008
 50
253.808654
 51
286.191346
  0
ARC
  8
7
 10
126.499998
 20
-888.6
 30
0.0
 40
2.000002
 50
4.780192
 51
175.219808
  0
LINE
  8
7
 10
122.000003
 20
-885.3
 30
0.0
 11
122.000003
 21
-886.6
 31
0.0
  0
ARC
  8
7
 10
123.600002
 20
-886.6
 30
0.0
 40
1.599999
 50
179.999824
 51
253.808432
  0
LINE
  8
7
 10
118.500003
 20
-885.3
 30
0.0
 11
118.500003
 21
-883.0
 31
0.0
  0
LINE
  8
7
 10
118.500003
 20
-883.0
 30
0.0
 11
118.500003
 21
-829.5
 31
0.0
  0
ARC
  8
7
 10
129.400001
 20
-886.6
 30
0.0
 40
1.600002
 50
286.191275
 51
359.999992
  0
LINE
  8
7
 10
122.000003
 20
-885.3
 30
0.0
 11
131.000003
 21
-885.3
 31
0.0
  0
LINE
  8
7
 10
118.500003
 20
-885.3
 30
0.0
 11
132.350003
 21
-885.3
 31
0.0
  0
LINE
  8
7
 10
134.500003
 20
-827.2
 30
0.0
 11
118.500003
 21
-827.2
 31
0.0
  0
ARC
  8
7
 10
132.000003
 20
-825.2
 30
0.0
 40
2.0
 50
180.0
 51
270.0
  0
LINE
  8
7
 10
118.500003
 20
-836.7
 30
0.0
 11
155.000003
 21
-836.7
 31
0.0
  0
LINE
  8
7
 10
118.500003
 20
-875.9
 30
0.0
 11
155.000003
 21
-875.9
 31
0.0
  0
LINE
  8
7
 10
118.500003
 20
-837.5
 30
0.0
 11
155.000003
 21
-837.5
 31
0.0
  0
LINE
  8
7
 10
118.500003
 20
-838.3
 30
0.0
 11
155.000003
 21
-838.3
 31
0.0
  0
LINE
  8
7
 10
118.500003
 20
-839.1
 30
0.0
 11
155.000003
 21
-839.1
 31
0.0
  0
LINE
  8
7
 10
118.500003
 20
-839.9
 30
0.0
 11
155.000003
 21
-839.9
 31
0.0
  0
LINE
  8
7
 10
118.500003
 20
-840.7
 30
0.0
 11
155.000003
 21
-840.7
 31
0.0
  0
LINE
  8
7
 10
118.500003
 20
-841.5
 30
0.0
 11
155.000003
 21
-841.5
 31
0.0
  0
LINE
  8
7
 10
118.500003
 20
-842.3
 30
0.0
 11
155.000003
 21
-842.3
 31
0.0
  0
LINE
  8
7
 10
118.500003
 20
-843.1
 30
0.0
 11
155.000003
 21
-843.1
 31
0.0
  0
LINE
  8
7
 10
118.500003
 20
-843.9
 30
0.0
 11
155.000003
 21
-843.9
 31
0.0
  0
LINE
  8
7
 10
118.500003
 20
-844.7
 30
0.0
 11
155.000003
 21
-844.7
 31
0.0
  0
LINE
  8
7
 10
118.500003
 20
-845.5
 30
0.0
 11
155.000003
 21
-845.5
 31
0.0
  0
LINE
  8
7
 10
118.500003
 20
-846.3
 30
0.0
 11
155.000003
 21
-846.3
 31
0.0
  0
LINE
  8
7
 10
118.500003
 20
-847.1
 30
0.0
 11
155.000003
 21
-847.1
 31
0.0
  0
LINE
  8
7
 10
118.500003
 20
-847.9
 30
0.0
 11
155.000003
 21
-847.9
 31
0.0
  0
LINE
  8
7
 10
118.500003
 20
-848.7
 30
0.0
 11
155.000003
 21
-848.7
 31
0.0
  0
LINE
  8
7
 10
118.500003
 20
-849.5
 30
0.0
 11
155.000003
 21
-849.5
 31
0.0
  0
LINE
  8
7
 10
118.500003
 20
-850.3
 30
0.0
 11
155.000003
 21
-850.3
 31
0.0
  0
LINE
  8
7
 10
118.500003
 20
-851.1
 30
0.0
 11
155.000003
 21
-851.1
 31
0.0
  0
LINE
  8
7
 10
118.500003
 20
-851.9
 30
0.0
 11
155.000003
 21
-851.9
 31
0.0
  0
LINE
  8
7
 10
118.500003
 20
-852.7
 30
0.0
 11
155.000003
 21
-852.7
 31
0.0
  0
LINE
  8
7
 10
118.500003
 20
-853.5
 30
0.0
 11
155.000003
 21
-853.5
 31
0.0
  0
LINE
  8
7
 10
118.500003
 20
-854.3
 30
0.0
 11
155.000003
 21
-854.3
 31
0.0
  0
LINE
  8
7
 10
118.500003
 20
-855.1
 30
0.0
 11
155.000003
 21
-855.1
 31
0.0
  0
LINE
  8
7
 10
118.500003
 20
-855.9
 30
0.0
 11
155.000003
 21
-855.9
 31
0.0
  0
LINE
  8
7
 10
118.500003
 20
-856.7
 30
0.0
 11
155.000003
 21
-856.7
 31
0.0
  0
LINE
  8
7
 10
118.500003
 20
-857.5
 30
0.0
 11
155.000003
 21
-857.5
 31
0.0
  0
LINE
  8
7
 10
118.500003
 20
-858.3
 30
0.0
 11
155.000003
 21
-858.3
 31
0.0
  0
LINE
  8
7
 10
118.500003
 20
-859.1
 30
0.0
 11
155.000003
 21
-859.1
 31
0.0
  0
LINE
  8
7
 10
118.500003
 20
-859.9
 30
0.0
 11
155.000003
 21
-859.9
 31
0.0
  0
LINE
  8
7
 10
118.500003
 20
-860.7
 30
0.0
 11
155.000003
 21
-860.7
 31
0.0
  0
LINE
  8
7
 10
118.500003
 20
-861.5
 30
0.0
 11
155.000003
 21
-861.5
 31
0.0
  0
LINE
  8
7
 10
118.500003
 20
-862.3
 30
0.0
 11
155.000003
 21
-862.3
 31
0.0
  0
LINE
  8
7
 10
118.500003
 20
-863.1
 30
0.0
 11
155.000003
 21
-863.1
 31
0.0
  0
LINE
  8
7
 10
118.500003
 20
-863.9
 30
0.0
 11
155.000003
 21
-863.9
 31
0.0
  0
LINE
  8
7
 10
118.500003
 20
-864.7
 30
0.0
 11
155.000003
 21
-864.7
 31
0.0
  0
LINE
  8
7
 10
118.500003
 20
-865.5
 30
0.0
 11
155.000003
 21
-865.5
 31
0.0
  0
LINE
  8
7
 10
118.500003
 20
-866.3
 30
0.0
 11
155.000003
 21
-866.3
 31
0.0
  0
LINE
  8
7
 10
118.500003
 20
-867.1
 30
0.0
 11
155.000003
 21
-867.1
 31
0.0
  0
LINE
  8
7
 10
118.500003
 20
-867.9
 30
0.0
 11
155.000003
 21
-867.9
 31
0.0
  0
LINE
  8
7
 10
118.500003
 20
-868.7
 30
0.0
 11
155.000003
 21
-868.7
 31
0.0
  0
LINE
  8
7
 10
118.500003
 20
-869.5
 30
0.0
 11
155.000003
 21
-869.5
 31
0.0
  0
LINE
  8
7
 10
118.500003
 20
-870.3
 30
0.0
 11
155.000003
 21
-870.3
 31
0.0
  0
LINE
  8
7
 10
118.500003
 20
-871.1
 30
0.0
 11
155.000003
 21
-871.1
 31
0.0
  0
LINE
  8
7
 10
118.500003
 20
-871.9
 30
0.0
 11
155.000003
 21
-871.9
 31
0.0
  0
LINE
  8
7
 10
118.500003
 20
-872.7
 30
0.0
 11
155.000003
 21
-872.7
 31
0.0
  0
LINE
  8
7
 10
118.500003
 20
-873.5
 30
0.0
 11
155.000003
 21
-873.5
 31
0.0
  0
LINE
  8
7
 10
118.500003
 20
-874.3
 30
0.0
 11
155.000003
 21
-874.3
 31
0.0
  0
LINE
  8
7
 10
118.500003
 20
-875.1
 30
0.0
 11
155.000003
 21
-875.1
 31
0.0
  0
ARC
  8
7
 10
134.500005
 20
-823.0
 30
0.0
 40
5.999998
 50
0.000063
 51
85.000062
  0
LINE
  8
7
 10
201.217292
 20
-804.7
 30
0.0
 11
199.127587
 21
-764.8
 31
0.0
  0
ARC
  8
7
 10
197.495884
 20
-763.5
 30
0.0
 40
2.999999
 50
3.000015
 51
90.000016
  0
LINE
  8
7
 10
213.250000
 20
-827.0
 30
0.0
 11
176.750000
 21
-827.0
 31
0.0
  0
LINE
  8
7
 10
176.750000
 20
-885.5
 30
0.0
 11
213.250000
 21
-885.5
 31
0.0
  0
LINE
  8
7
 10
175.500000
 20
-921.5
 30
0.0
 11
214.500000
 21
-921.5
 31
0.0
  0
LINE
  8
7
 10
165.000003
 20
-924.5
 30
0.0
 11
225.0
 21
-924.5
 31
0.0
  0
LINE
  8
7
 10
121.904883
 20
-815.5
 30
0.0
 11
268.095116
 21
-815.5
 31
0.0
  0
LINE
  8
7
 10
140.500003
 20
-817.5
 30
0.0
 11
249.500000
 21
-817.5
 31
0.0
  0
LINE
  8
7
 10
174.0
 20
-888.5
 30
0.0
 11
216.0
 21
-888.5
 31
0.0
  0
LINE
  8
7
 10
180.0
 20
-894.5
 30
0.0
 11
210.0
 21
-894.5
 31
0.0
  0
LINE
  8
7
 10
180.0
 20
-912.5
 30
0.0
 11
210.0
 21
-912.5
 31
0.0
  0
LINE
  8
7
 10
180.0
 20
-914.5
 30
0.0
 11
210.0
 21
-914.5
 31
0.0
  0
LINE
  8
7
 10
155.000003
 20
-836.3
 30
0.0
 11
235.0
 21
-836.3
 31
0.0
  0
LINE
  8
7
 10
155.000003
 20
-876.3
 30
0.0
 11
235.0
 21
-876.3
 31
0.0
  0
LINE
  8
7
 10
118.500003
 20
-829.5
 30
0.0
 11
271.500000
 21
-829.5
 31
0.0
  0
LINE
  8
7
 10
118.500003
 20
-883.0
 30
0.0
 11
271.500000
 21
-883.0
 31
0.0
  0
LINE
  8
7
 10
118.500003
 20
-830.3
 30
0.0
 11
271.500000
 21
-830.3
 31
0.0
  0
LINE
  8
7
 10
118.500003
 20
-831.1
 30
0.0
 11
271.500000
 21
-831.1
 31
0.0
  0
LINE
  8
7
 10
118.500003
 20
-831.9
 30
0.0
 11
271.500000
 21
-831.9
 31
0.0
  0
LINE
  8
7
 10
118.500003
 20
-832.7
 30
0.0
 11
271.500000
 21
-832.7
 31
0.0
  0
LINE
  8
7
 10
118.500003
 20
-833.5
 30
0.0
 11
271.500000
 21
-833.5
 31
0.0
  0
LINE
  8
7
 10
118.500003
 20
-834.3
 30
0.0
 11
271.500000
 21
-834.3
 31
0.0
  0
LINE
  8
7
 10
118.500003
 20
-835.1
 30
0.0
 11
271.500000
 21
-835.1
 31
0.0
  0
LINE
  8
7
 10
118.500003
 20
-835.9
 30
0.0
 11
271.500000
 21
-835.9
 31
0.0
  0
LINE
  8
7
 10
118.500003
 20
-876.7
 30
0.0
 11
271.500000
 21
-876.7
 31
0.0
  0
LINE
  8
7
 10
118.500003
 20
-877.5
 30
0.0
 11
271.500000
 21
-877.5
 31
0.0
  0
LINE
  8
7
 10
118.500003
 20
-878.3
 30
0.0
 11
271.500000
 21
-878.3
 31
0.0
  0
LINE
  8
7
 10
118.500003
 20
-879.1
 30
0.0
 11
271.500000
 21
-879.1
 31
0.0
  0
LINE
  8
7
 10
118.500003
 20
-879.9
 30
0.0
 11
271.500000
 21
-879.9
 31
0.0
  0
LINE
  8
7
 10
118.500003
 20
-880.7
 30
0.0
 11
271.500000
 21
-880.7
 31
0.0
  0
LINE
  8
7
 10
118.500003
 20
-881.5
 30
0.0
 11
271.500000
 21
-881.5
 31
0.0
  0
LINE
  8
7
 10
118.500003
 20
-882.3
 30
0.0
 11
271.500000
 21
-882.3
 31
0.0
  0
POINT
  8
7
 10
240.349999
 20
-933.4
 30
0.0
  0
POINT
  8
7
 10
149.649995
 20
-933.4
 30
0.0
  0
LINE
  8
1
 10
150.000003
 20
-763.0
 30
0.0
 11
150.000003
 21
-749.8
 31
0.0
  0
LINE
  8
1
 10
240.0
 20
-763.0
 30
0.0
 11
240.0
 21
-749.8
 31
0.0
  0
LINE
  8
1
 10
154.000003
 20
-751.8
 30
0.0
 11
236.0
 21
-751.8
 31
0.0
  0
LINE
  8
0
 10
154.000003
 20
-752.8
 30
0.0
 11
150.000003
 21
-751.8
 31
0.0
  0
LINE
  8
0
 10
150.000003
 20
-751.8
 30
0.0
 11
154.000003
 21
-750.7
 31
0.0
  0
LINE
  8
0
 10
150.000003
 20
-751.8
 30
0.0
 11
154.000003
 21
-751.8
 31
0.0
  0
LINE
  8
0
 10
236.0
 20
-750.7
 30
0.0
 11
240.0
 21
-751.8
 31
0.0
  0
LINE
  8
0
 10
240.0
 20
-751.8
 30
0.0
 11
236.0
 21
-752.8
 31
0.0
  0
LINE
  8
0
 10
240.0
 20
-751.8
 30
0.0
 11
236.0
 21
-751.8
 31
0.0
  0
TEXT
  8
1
 62
     7
 10
190.850001
 20
-749.8
 30
0.0
 40
5.0
  7
CSTEXT
  1
90
 72
     5
 11
199.150002
 21
-749.8
 31
0.0
  0
LINE
  8
1
 10
117.647513
 20
-809.8
 30
0.0
 11
117.647513
 21
-737.0
 31
0.0
  0
LINE
  8
1
 10
272.352490
 20
-809.8
 30
0.0
 11
272.352490
 21
-737.0
 31
0.0
  0
LINE
  8
1
 10
121.647513
 20
-739.0
 30
0.0
 11
268.352490
 21
-739.0
 31
0.0
  0
LINE
  8
0
 10
121.647513
 20
-740.0
 30
0.0
 11
117.647513
 21
-739.0
 31
0.0
  0
LINE
  8
0
 10
117.647513
 20
-739.0
 30
0.0
 11
121.647513
 21
-737.9
 31
0.0
  0
LINE
  8
0
 10
117.647513
 20
-739.0
 30
0.0
 11
121.647513
 21
-739.0
 31
0.0
  0
LINE
  8
0
 10
268.352490
 20
-737.9
 30
0.0
 11
272.352490
 21
-739.0
 31
0.0
  0
LINE
  8
0
 10
272.352490
 20
-739.0
 30
0.0
 11
268.352490
 21
-740.0
 31
0.0
  0
LINE
  8
0
 10
272.352490
 20
-739.0
 30
0.0
 11
268.352490
 21
-739.0
 31
0.0
  0
TEXT
  8
1
 62
     7
 10
188.775002
 20
-737.0
 30
0.0
 40
5.0
  7
CSTEXT
  1
155
 72
     5
 11
201.225002
 21
-737.0
 31
0.0
  0
LINE
  8
1
 10
265.778910
 20
-760.5
 30
0.0
 11
323.467634
 21
-760.5
 31
0.0
  0
LINE
  8
1
 10
256.350000
 20
-930.3
 30
0.0
 11
323.467634
 21
-930.3
 31
0.0
  0
LINE
  8
1
 10
321.467634
 20
-764.5
 30
0.0
 11
321.467634
 21
-926.3
 31
0.0
  0
LINE
  8
0
 10
320.395837
 20
-764.5
 30
0.0
 11
321.467634
 21
-760.5
 31
0.0
  0
LINE
  8
0
 10
321.467634
 20
-760.5
 30
0.0
 11
322.539431
 21
-764.5
 31
0.0
  0
LINE
  8
0
 10
321.467634
 20
-760.5
 30
0.0
 11
321.467634
 21
-764.5
 31
0.0
  0
LINE
  8
0
 10
322.539431
 20
-926.3
 30
0.0
 11
321.467634
 21
-930.3
 31
0.0
  0
LINE
  8
0
 10
321.467634
 20
-930.3
 30
0.0
 11
320.395837
 21
-926.3
 31
0.0
  0
LINE
  8
0
 10
321.467634
 20
-930.3
 30
0.0
 11
321.467634
 21
-926.3
 31
0.0
  0
TEXT
  8
1
 62
     7
 10
319.467634
 20
-851.6
 30
0.0
 40
5.0
  7
CSTEXT
  1
173
 50
90.0
 41
0.995984
 72
     5
 11
319.467634
 21
-839.2
 31
0.0
  0
LINE
  8
1
 10
259.747934
 20
-893.0
 30
0.0
 11
268.694658
 21
-918.7
 31
0.0
  0
LINE
  8
1
 10
268.694658
 20
-918.7
 30
0.0
 11
312.963044
 21
-918.7
 31
0.0
  0
LINE
  8
1
 10
260.911032
 20
-894.7
 30
0.0
 11
259.747934
 21
-893.0
 31
0.0
  0
LINE
  8
1
 10
259.747934
 20
-893.0
 30
0.0
 11
259.898700
 21
-895.0
 31
0.0
  0
LINE
  8
1
 10
259.898700
 20
-895.0
 30
0.0
 11
260.911032
 21
-894.7
 31
0.0
  0
LINE
  8
1
 10
149.649995
 20
-937.4
 30
0.0
 11
149.649995
 21
-951.4
 31
0.0
  0
LINE
  8
1
 10
240.349999
 20
-937.4
 30
0.0
 11
240.349999
 21
-951.4
 31
0.0
  0
LINE
  8
1
 10
153.649995
 20
-949.4
 30
0.0
 11
236.349999
 21
-949.4
 31
0.0
  0
LINE
  8
0
 10
153.649995
 20
-950.5
 30
0.0
 11
149.649995
 21
-949.4
 31
0.0
  0
LINE
  8
0
 10
149.649995
 20
-949.4
 30
0.0
 11
153.649995
 21
-948.4
 31
0.0
  0
LINE
  8
0
 10
149.649995
 20
-949.4
 30
0.0
 11
153.649995
 21
-949.4
 31
0.0
  0
LINE
  8
0
 10
236.349999
 20
-948.4
 30
0.0
 11
240.349999
 21
-949.4
 31
0.0
  0
LINE
  8
0
 10
240.349999
 20
-949.4
 30
0.0
 11
236.349999
 21
-950.5
 31
0.0
  0
LINE
  8
0
 10
240.349999
 20
-949.4
 30
0.0
 11
236.349999
 21
-949.4
 31
0.0
  0
TEXT
  8
1
 62
     7
 10
175.849997
 20
-947.4
 30
0.0
 40
5.0
  7
CSTEXT
  1
90（取付寸法）
 72
     5
 11
214.149997
 21
-947.4
 31
0.0
  0
LINE
  8
1
 10
177.007509
 20
-908.1
 30
0.0
 11
153.746583
 21
-968.8
 31
0.0
  0
LINE
  8
1
 10
153.746583
 20
-968.8
 30
0.0
 11
211.420083
 21
-968.8
 31
0.0
  0
LINE
  8
1
 10
176.792413
 20
-910.2
 30
0.0
 11
177.007509
 21
-908.1
 31
0.0
  0
LINE
  8
1
 10
177.007509
 20
-908.1
 30
0.0
 11
175.791553
 21
-909.8
 31
0.0
  0
LINE
  8
1
 10
175.791553
 20
-909.8
 30
0.0
 11
176.792413
 21
-910.2
 31
0.0
  0
LINE
  8
1
 10
350.770245
 20
-809.1
 30
0.0
 11
350.770245
 21
-722.4
 31
0.0
  0
LINE
  8
1
 10
545.770243
 20
-810.2
 30
0.0
 11
545.770243
 21
-722.4
 31
0.0
  0
LINE
  8
1
 10
354.770245
 20
-724.4
 30
0.0
 11
541.770243
 21
-724.4
 31
0.0
  0
LINE
  8
0
 10
354.770245
 20
-725.5
 30
0.0
 11
350.770245
 21
-724.4
 31
0.0
  0
LINE
  8
0
 10
350.770245
 20
-724.4
 30
0.0
 11
354.770245
 21
-723.4
 31
0.0
  0
LINE
  8
0
 10
350.770245
 20
-724.4
 30
0.0
 11
354.770245
 21
-724.4
 31
0.0
  0
LINE
  8
0
 10
541.770243
 20
-723.4
 30
0.0
 11
545.770243
 21
-724.4
 31
0.0
  0
LINE
  8
0
 10
545.770243
 20
-724.4
 30
0.0
 11
541.770243
 21
-725.5
 31
0.0
  0
LINE
  8
0
 10
545.770243
 20
-724.4
 30
0.0
 11
541.770243
 21
-724.4
 31
0.0
  0
TEXT
  8
1
 62
     7
 10
442.045244
 20
-722.4
 30
0.0
 40
5.0
  7
CSTEXT
  1
195
 72
     5
 11
454.495244
 21
-722.4
 31
0.0
  0
LINE
  8
1
 10
354.770245
 20
-743.4
 30
0.0
 11
441.770247
 21
-743.4
 31
0.0
  0
LINE
  8
0
 10
354.770245
 20
-744.5
 30
0.0
 11
350.770245
 21
-743.4
 31
0.0
  0
LINE
  8
0
 10
350.770245
 20
-743.4
 30
0.0
 11
354.770245
 21
-742.3
 31
0.0
  0
LINE
  8
0
 10
350.770245
 20
-743.4
 30
0.0
 11
354.770245
 21
-743.4
 31
0.0
  0
LINE
  8
0
 10
441.770247
 20
-742.3
 30
0.0
 11
445.770247
 21
-743.4
 31
0.0
  0
LINE
  8
0
 10
445.770247
 20
-743.4
 30
0.0
 11
441.770247
 21
-744.5
 31
0.0
  0
LINE
  8
0
 10
445.770247
 20
-743.4
 30
0.0
 11
441.770247
 21
-743.4
 31
0.0
  0
TEXT
  8
1
 62
     7
 10
394.120246
 20
-741.4
 30
0.0
 40
5.0
  7
CSTEXT
  1
95
 72
     5
 11
402.420246
 21
-741.4
 31
0.0
  0
LINE
  8
1
 10
507.714433
 20
-771.4
 30
0.0
 11
525.659133
 21
-745.2
 31
0.0
  0
LINE
  8
1
 10
525.659133
 20
-745.2
 30
0.0
 11
474.214233
 21
-745.2
 31
0.0
  0
LINE
  8
1
 10
508.403569
 20
-769.4
 30
0.0
 11
507.714433
 21
-771.4
 31
0.0
  0
LINE
  8
1
 10
507.714433
 20
-771.4
 30
0.0
 11
509.287497
 21
-770.1
 31
0.0
  0
LINE
  8
1
 10
509.287497
 20
-770.1
 30
0.0
 11
508.403569
 21
-769.4
 31
0.0
  0
LINE
  8
1
 10
365.770251
 20
-934.3
 30
0.0
 11
365.770251
 21
-954.0
 31
0.0
  0
LINE
  8
1
 10
525.770253
 20
-934.3
 30
0.0
 11
525.770253
 21
-954.0
 31
0.0
  0
LINE
  8
1
 10
369.770251
 20
-952.0
 30
0.0
 11
521.770253
 21
-952.0
 31
0.0
  0
LINE
  8
0
 10
369.770251
 20
-953.1
 30
0.0
 11
365.770251
 21
-952.0
 31
0.0
  0
LINE
  8
0
 10
365.770251
 20
-952.0
 30
0.0
 11
369.770251
 21
-951.0
 31
0.0
  0
LINE
  8
0
 10
365.770251
 20
-952.0
 30
0.0
 11
369.770251
 21
-952.0
 31
0.0
  0
LINE
  8
0
 10
521.770253
 20
-951.0
 30
0.0
 11
525.770253
 21
-952.0
 31
0.0
  0
LINE
  8
0
 10
525.770253
 20
-952.0
 30
0.0
 11
521.770253
 21
-953.1
 31
0.0
  0
LINE
  8
0
 10
525.770253
 20
-952.0
 30
0.0
 11
521.770253
 21
-952.0
 31
0.0
  0
TEXT
  8
1
 62
     7
 10
439.545252
 20
-950.0
 30
0.0
 40
5.0
  7
CSTEXT
  1
160
 72
     5
 11
451.995252
 21
-950.0
 31
0.0
  0
LINE
  8
1
 10
379.770249
 20
-966.6
 30
0.0
 11
511.770253
 21
-966.6
 31
0.0
  0
LINE
  8
0
 10
379.770249
 20
-967.7
 30
0.0
 11
375.770249
 21
-966.6
 31
0.0
  0
LINE
  8
0
 10
375.770249
 20
-966.6
 30
0.0
 11
379.770249
 21
-965.6
 31
0.0
  0
LINE
  8
0
 10
375.770249
 20
-966.6
 30
0.0
 11
379.770249
 21
-966.6
 31
0.0
  0
LINE
  8
0
 10
511.770253
 20
-965.6
 30
0.0
 11
515.770253
 21
-966.6
 31
0.0
  0
LINE
  8
0
 10
515.770253
 20
-966.6
 30
0.0
 11
511.770253
 21
-967.7
 31
0.0
  0
LINE
  8
0
 10
515.770253
 20
-966.6
 30
0.0
 11
511.770253
 21
-966.6
 31
0.0
  0
TEXT
  8
1
 62
     7
 10
424.545251
 20
-964.6
 30
0.0
 40
5.0
  7
CSTEXT
  1
140（取付寸法）
 72
     5
 11
466.995251
 21
-964.6
 31
0.0
  0
LINE
  8
1
 10
386.109994
 20
-988.3
 30
0.0
 11
353.891334
 21
-988.3
 31
0.0
  0
LINE
  8
1
 10
386.109994
 20
-998.3
 30
0.0
 11
353.891334
 21
-998.3
 31
0.0
  0
LINE
  8
1
 10
355.891334
 20
-984.3
 30
0.0
 11
355.891334
 21
-980.3
 31
0.0
  0
LINE
  8
1
 10
355.891334
 20
-1002.3
 30
0.0
 11
355.891334
 21
-1016.2
 31
0.0
  0
LINE
  8
1
 10
355.891334
 20
-988.3
 30
0.0
 11
355.891334
 21
-998.3
 31
0.0
  0
LINE
  8
0
 10
356.963131
 20
-984.3
 30
0.0
 11
355.891334
 21
-988.3
 31
0.0
  0
LINE
  8
0
 10
355.891334
 20
-988.3
 30
0.0
 11
354.819537
 21
-984.3
 31
0.0
  0
LINE
  8
0
 10
355.891334
 20
-988.3
 30
0.0
 11
355.891334
 21
-984.3
 31
0.0
  0
LINE
  8
0
 10
354.819537
 20
-1002.3
 30
0.0
 11
355.891334
 21
-998.3
 31
0.0
  0
LINE
  8
0
 10
355.891334
 20
-998.3
 30
0.0
 11
356.963131
 21
-1002.3
 31
0.0
  0
LINE
  8
0
 10
355.891334
 20
-998.3
 30
0.0
 11
355.891334
 21
-1002.3
 31
0.0
  0
TEXT
  8
1
 62
     7
 10
353.891334
 20
-1015.4
 30
0.0
 40
5.0
  7
CSTEXT
  1
10
 50
90.0
 72
     5
 11
353.891334
 21
-1007.1
 31
0.0
  0
LINE
  8
1
 10
529.770249
 20
-930.3
 30
0.0
 11
545.815873
 21
-930.3
 31
0.0
  0
LINE
  8
1
 10
529.770249
 20
-928.0
 30
0.0
 11
545.815873
 21
-928.0
 31
0.0
  0
LINE
  8
1
 10
543.815873
 20
-934.3
 30
0.0
 11
543.815873
 21
-938.3
 31
0.0
  0
LINE
  8
1
 10
543.815873
 20
-924.0
 30
0.0
 11
543.815873
 21
-906.7
 31
0.0
  0
LINE
  8
1
 10
543.815873
 20
-930.3
 30
0.0
 11
543.815873
 21
-928.0
 31
0.0
  0
LINE
  8
0
 10
542.744076
 20
-934.3
 30
0.0
 11
543.815873
 21
-930.3
 31
0.0
  0
LINE
  8
0
 10
543.815873
 20
-930.3
 30
0.0
 11
544.887670
 21
-934.3
 31
0.0
  0
LINE
  8
0
 10
543.815873
 20
-930.3
 30
0.0
 11
543.815873
 21
-934.3
 31
0.0
  0
LINE
  8
0
 10
544.887670
 20
-924.0
 30
0.0
 11
543.815873
 21
-928.0
 31
0.0
  0
LINE
  8
0
 10
543.815873
 20
-928.0
 30
0.0
 11
542.744076
 21
-924.0
 31
0.0
  0
LINE
  8
0
 10
543.815873
 20
-928.0
 30
0.0
 11
543.815873
 21
-924.0
 31
0.0
  0
TEXT
  8
1
 62
     7
 10
541.815873
 20
-919.6
 30
0.0
 40
5.0
  7
CSTEXT
  1
2.3
 50
90.0
 72
     5
 11
541.815873
 21
-907.1
 31
0.0
  0
LINE
  8
1
 10
371.888742
 20
-990.1
 30
0.0
 11
346.269829
 21
-972.1
 31
0.0
  0
LINE
  8
1
 10
346.269829
 20
-972.1
 30
0.0
 11
300.901666
 21
-972.1
 31
0.0
  0
LINE
  8
1
 10
369.944773
 20
-989.4
 30
0.0
 11
371.888742
 21
-990.1
 31
0.0
  0
LINE
  8
1
 10
371.888742
 20
-990.1
 30
0.0
 11
370.561650
 21
-988.6
 31
0.0
  0
LINE
  8
1
 10
370.561650
 20
-988.6
 30
0.0
 11
369.944773
 21
-989.4
 31
0.0
  0
TEXT
  8
3
 10
187.0
 20
-858.0
 30
0.0
 40
5.0
  7
CSTEXT
  1
名　　板
 41
0.800000
 72
     5
 11
203.0
 21
-858.0
 31
0.0
  0
TEXT
  8
3
 10
271.194658
 20
-916.2
 30
0.0
 40
5.0
  7
CSTEXT
  1
検定封印穴φ2
 41
0.800000
 72
     5
 11
298.514658
 21
-916.2
 31
0.0
  0
TEXT
  8
3
 10
303.401666
 20
-969.6
 30
0.0
 40
5.0
  7
CSTEXT
  1
4-M8ボルト用
 41
0.800000
 72
     5
 11
332.681666
 21
-969.6
 31
0.0
  0
TEXT
  8
3
 10
161.246583
 20
-966.3
 30
0.0
 40
5.0
  7
CSTEXT
  1
二次端子 M5ねじ
 41
0.800000
 72
     5
 11
195.206583
 21
-966.3
 31
0.0
  0
TEXT
  8
3
 10
476.714233
 20
-742.7
 30
0.0
 40
5.0
  7
CSTEXT
  1
一次端子 M6ねじ
 41
0.800000
 72
     5
 11
510.674233
 21
-742.7
 31
0.0
  0
LINE
  8
1
 10
519.865514
 20
-990.4
 30
0.0
 11
539.016625
 21
-974.4
 31
0.0
  0
LINE
  8
1
 10
521.053133
 20
-988.7
 30
0.0
 11
519.865514
 21
-990.4
 31
0.0
  0
LINE
  8
1
 10
519.865514
 20
-990.4
 30
0.0
 11
521.742073
 21
-989.5
 31
0.0
  0
LINE
  8
1
 10
521.742073
 20
-989.5
 30
0.0
 11
521.053133
 21
-988.7
 31
0.0
  0
TEXT
  8
3
 10
529.885720
 20
-981.4
 30
0.0
 40
5.0
  7
CSTEXT
  1
R5
 50
40.0
 41
0.800000
 72
     5
 11
534.987992
 21
-977.1
 31
0.0
  0
LINE
  8
1
 10
408.460991
 20
-990.8
 30
0.0
 11
427.254843
 21
-984.0
 31
0.0
  0
LINE
  8
1
 10
410.157087
 20
-989.6
 30
0.0
 11
408.460991
 21
-990.8
 31
0.0
  0
LINE
  8
1
 10
408.460991
 20
-990.8
 30
0.0
 11
410.523665
 21
-990.6
 31
0.0
  0
LINE
  8
1
 10
410.523665
 20
-990.6
 30
0.0
 11
410.157087
 21
-989.6
 31
0.0
  0
TEXT
  8
3
 10
416.277368
 20
-987.4
 30
0.0
 40
5.0
  7
CSTEXT
  1
R10
 50
20.0
 41
0.799821
 72
     5
 11
425.634613
 21
-984.0
 31
0.0
  0
TEXT
  8
3
 10
620.0
 20
-698.0
 30
0.0
 40
10.0
  7
CSTEXT
  1
外形図
 41
0.800000
 72
     5
 11
644.0
 21
-698.0
 31
0.0
  0
ENDSEC
  0
EOF
